Simon And Garfunkel - Bridge Over Trouble Water Chords & Tabs

 

Bridge Over Trouble Water Chords & Tabs

Simon And Garfunkel Chords & Tabs

Version: 1 Type: Tab 0 ratings
1 star 2 stars 3 stars 4 stars 5 stars
comments

Bridge Over Trouble Water Tab

   
#----------------------------------PLEASE NOTE---------------------------------#
#This file is the author's own work and represents their interpretation of the #
#song. You may only use this file for private study, scholarship, or research. #
#------------------------------------------------------------------------------##
From: sbowman@mccoy (Sam W. Bowman)

~~~~~~~~~~~~~~~~~~~~~~~~~~~~~~~~~~~~~~~~~~~~~~~~~

Bridge over Troubled Waters
By Paul Simon

Original Music by Paul Simon
Tabbed from DAT demo by Howard Morgen
Enter for the Net by an unidentified copyright violator...

Note:  I am not going to list the chords since the TAB is much more  
reflective of what you need to do...don't try to make complete chords if  
it is inconvenient, just finger what is needed and forget the rest...

 Intro
 E(bar 7)           A(open)
|-----------------|-------------------|
|-------9-----9---|-------2-----2h3-2-|
|-----9-----9-----|-----2-----2-------|
|---9-----9-----9-|---2-----2---2h4-2-|
|-----------------|-0-----------------|
|-0---------------|-------------------|
 
 
  E(bar 7)          F#m/A
|-----------------|---------2---------|
|-------9-----9---|-------2-----------|
|-----9-----9-----|-----2-------------|
|---9-----9-----9-|---4---------------|
|-----------------|-0-----------------|
|-0---------------|-------------------|
                         


 E(bar 7)           A(open)
|-----------------|-----------------|
|-------9-----9---|-------2-----2-4-|
|-----------9-----|-----2-----------|
|-----9---9-----9-|---2-------2-2-4-|
|-7---------------|-0-------0-------|
|-----------------|-----------------|
    


  B/E     E         A                 E2
|-----------------|-----------------|-----------0-----|
|-4-----4-----5---|-------2-3---2---|---------0---0---|
|-4---4-----4-----|-----2---4---2---|-------1-------1-|
|-4-6-----6-----6-|---2-----4---2---|-----4-----------|
|-----------------|-0---------------|---2-------------|
|-0---------------|-----------------|-0---------------|
   


  A                   E      A          E       A
|-------------0-----|-----------------|-----------------|
|-------5-----------|------------2----|-------9-----2---|
|-----6-----6-------|------------2----|-----9-------2---|
|---4-----4---------|-----2----2------|---9-------2---2-|
|---------------2p0-|---2---0---------|---------0-------|
|-5-----------------|-4-------------0-|-0---------------|
       


                 B(bar 7)         B9
|----4---2--0--|-----7--------5-|------------------|
|----0---0--0--|-------7-7-9--0-|------------------|
|--------------|---8-----8-9--6-|------------------|
|----2---1-----|----------------|--*=harmonics-----|
|-----------4--|----------------|-7*-----------2p0-|
|-0------------|-7-------7------|------------7*----|
   


  E                 E7                 A       F#
|-----------------|---------0--------|---5-----------2-|
|-----------------|-------------3----|-----5-------2---|
|-----------------|-------1----------|-------6---3-----|
|---2---1-----1---|-0---0------------|-----------------|
|-2---2---2-2---2-|------------------|-0---------------|
|-----------------|---0--------------|---------2-------|
  


  B       E7       A       A#dim     Emaj7   C#m7
|-------7-4--2---|-----------------|-----------------|
|-----7---3--3---|-5-----5-------7-|-------9---------|
|---8------------|-----6-------6---|-----8-------9---|
|----------------|---7-------5-----|---6-------6-----|
|----------------|-0---------------|-----------------|
|-7-------0--4---|---------6-------|-0-------9-----7-|
 


  A       Am7        E2             A
|-----------------|---------0-----|----------------|
|---------------5-|-----------0---|-------2-2h3p2--|
|-------6-5-----4-|-------------1-|-----2----------|
|-----7-------5-4-|---------------|---2-----2h4p2--|
|---7-------7-----|---------------|-0--------------|
|-5-------5-----4-|--0------------|----------------|
  

 
  E(bar 7)          F#m/A
|-----------------|---------2---------|
|-------9---------|-------2-----------|
|-----9-----9---9-|-----2-------------|
|---9---------9---|---4---------------|
|-----------------|-0-----------------|
|-0---------------|-------------------|
                        


  E     ! ! !=triplet   A(open)          Emaj7
|-------2h4p2p0-5-4p0-|----------------|---------------|
|-------0-------0-0---|-----2-----2-4--|-------4---5-7-|
|---------------------|-----2----------|-----4---------|
|---------------------|---2---2---2-4--|---6-----6-----|
|---------------------|-0--------------|---------------|
|-0-------------------|----------------|-0-------------|
  


  A                 E                 D       A
|-----------------|-----------7-----|---5----------|
|-------2-3--2----|-----5-7-9---9---|-7---7-6---5--|
|-----2-----------|-----------------|---6-----6----|
|---2-----4--2----|-5s6---7-9-----9-|-7---7-5------|
|-0---------------|-----------------|---------7----|
|-----------------|-0---------------|--------------|
   


  E         A        E     A
|------------------|-7-------------|-0--4--2--0-----|
|---5----------5---|---7---------0-|----0--0--0-----|
|-----4--------6---|-8---8-----6---|----------------|
|-------6---7------|---9-----7-----|----2--1--------|
|---------0--------|-----7-0-------|----------4-----|
|-0--------------0-|---------------|----------------|
  

[ Tab from: http://www.guitartabs.cc/tabs/s/simon_and_garfunkel/bridge_over_trouble_water_tab.html ]
  B                B9                 E    Emaj9
|-----7---------5-|------------------|---------------|
|-----7---7-9---0-|--------7---------|-----------7---|
|-----8---8-9---6-|----------6-------|---9-------8---|
|-----------------|------------7-----|-6-------6---6-|
|-----------------|--------------6---|-------7-------|
|-7-7---7-7---7---|-7----7---------7-|-----7---------|



  E9              A         F#
|-----7-----9-7-|-----------------------|
|-----7-----9-7-|---------10------11----|
|-----7-----7-7-|-------9------11-------|
|---6---6-6-6-6-|-10h11-----11-------11-|
|---------------|--0--------------------|
|-0---------0---|-----------------------|
    


  B          (Harmonics)  A       A#dim
|-------------------12*-|-----5-----------|
|-------12-------12*----|-------5-----5---|
|----11----11-----------|---6-----------6-|
|-13--------------------|-----------5-----|
|-----------------------|-0---------------|
|-------------12*-------|---------6-------|
        


  E/B     C#m7      A       G#7/B#
|-----------------|-----------------|---------12--11--|
|-----5-------5---|-----5-------7---|-----9---9-------|
|-----6-------4---|-----6-------8---|---9---9-----11--|
|---6---6---6---6-|---7---7---6---6-|-----------------|
|---------4-------|-0---------------|-----------------|
|-7---------------|---------8-------|-9---------------|
 

  A       A#dim     Emaj7   C#m7     A       ! ! !(Triplet)
|-9-----9---------|----------------|-------5-8-7-5--|
|-----9---------7-|-------9-5------|-----5---5------|
|---9---------6---|-----8---4------|---6-------7-5--|
|-----------5-----|---6-----6------|----------------|
|-0---------------|---------4------|-0--------------|
|---------6-------|-0-----------7--|----------------|
  

  E                Amaj7             E
|-----------0----|-----------------|----0-----------|
|----------------|-----2-2---------|----0-----------|
|-------1--------|-----2-2---------|----1-----------|
|-----2----------|---2-------------|----2-----------|
|---2------------|-0-------0-------|-------------0--|
|-0------------3-|-----------3---0-|------0--3------|
 

  A                E                  A   
|----------------|------------------|-----------------|
|-----2----------|------------------|-----------------|
|-----2----------|------------------|---2-----2---2---|
|-2--------------|--------------1---|---2-----2-------|
|----------------|------2---2-------|-0-----0---0---0-|
|----------------|-0------0---0---0-|-----------------|
        

  E                A       D          E
|----------------|------------------|---0-0-----0-----|
|----------------|-----2---3---2----|---0-0-----0-----|
|------1---------|---------2---2----|---1-1-----1--1--|
|------2----4----|---2---2-4---2----|-----------------|
|-----------2----|-0----------------|-----------------|
|-0--------------|------------------|-0-----0-0-0-----|
  

  F#m              E         A         E       A
|-------2--------|-------------------|-----------------|
|-----2---2------|---------9-------2-|-8s9-9---------2-|
|---2-------2----|-------9-------2---|-8s9---9-----2---|
|----------------|---7s9-------2-----|-8s9-------2-----|
|----------------|-----------0-------|---------0-------|
|-2-----------2--|-0-----------------|-0---------------|
       
                

  E                B                 B9
|----4-4-2--0----|-----------------|-5----------7----|
|----0---0--0----|-----7-------9---|-5----------7----|
|----------------|-----7h8-----9---|-6----------8----|
|----2---1-------|-----------------|-----------------|
|-----------4----|-----------------|-----*=harmonic--|
|-0--------------|-7-7-----7-7---7-|-7---7-7--7*-----|



  Emaj7            E7    E7sus E7    A       F#7/A#
|-----0--4-4-4---|-4---4---5---4---|-----------------|
|-----0--4-4-4---|-3---3---3---3---|-----5-----5-----|
|-----1--4-4-4---|-4---4---4---4---|---6---------6---|
|--------2-2-2---|-2---2---2---2---|---------------4-|
|----------------|-----------------|-0-----0---------|
|-0------------0-|---0---0---0---0-|---------6-------|
 



  B      E7+5       A       Adim/D#
|-----------------|-----------------|
|--------3--------|-----2-------1---|
|-----8--5--------|-----2-----2-----|
|-----9--6--------|---2-----1-----2-|
|---9----7--------|-0---------------|
|-7------0---0----|-----------------|
        

  E         C#m7      A       Cdim       C#m
|-------------------|------------------|---------12---11-|
|-------5---------5-|-------------7----|-----9-----------|
|---------------4---|-------6-----8----|---9---9-9----11-|
|---5s6-------6-----|-----7-----7---7--|-----------------|
|---------5-4-------|---7--------------|-----------------|
|-0-----------------|-5-------8--------|-9-------9-------|
  
                              

  A       A#dim     E         C#m7      A       G#7/B#
|-9---------------|-------------------|-----------------|
|-----9-----------|-------5-------5---|-------------7---|
|---9---9-----6---|---------------4---|-----6-------8---|
|-----------5---5-|---5s6-------6-----|-----7-----6-----|
|-----------------|---------5-4-------|---7-------------|
|-0-------6-------|-0---------------7-|-5-------8-------|
  
                                            

Outro
  C#m     C#m/Cn    C#m7/B  F#9/A#     Aadd9
|-----------------|------------------|---------0-------|
|-----------------|------------------|-------0---0-----|
|-----9-------9---|-----9-------9----|-----6-------6---|
|---6-------6-----|---6-------6------|---2-----------2-|
|-----------------|------------------|-----------------|
|-9-----9-8-----8-|-7-----7-6-----6--|-5---------------|


  G#m7    F#m7     E2
|----------------|-----------0-----|---------0-------|
|-4-------2------|---------0---0---|-----0---0-------|
|-4-------2------|-------1-------1-|---1---1-1-------|
|-4-------2------|-----4-----------|-4-------4-------|
|-6-------4------|---2-------------|---------2-------|
|-4-------2------|-0---------------|---------0-------|
Comments