Simon And Garfunkel - A Poem On The Underground Wall Chords & Tabs

 

A Poem On The Underground Wall Chords & Tabs

Simon And Garfunkel Chords & Tabs

Version: 1 Type: Tab 0 ratings
1 star 2 stars 3 stars 4 stars 5 stars
comments

A Poem On The Underground Wall Tab

#----------------------------------PLEASE NOTE---------------------------------#
#This file is the author's own work and represents their interpretation of the #
#song. You may only use this file for private study, scholarship, or research. #
#------------------------------------------------------------------------------##
From: "Kean,John" 

A Poem on the Underground Wall  - Simon & Garfunkel
~~~~~~~~~~~~~~~~~~~~~~~~~~~~~~
>From "Parsley, Sage, Rosemary, and Thyme".
Transcribed and tabbed by John Kean (keanj@agresearch.cri.nz).

Capo 7th fret.
2/4 time (mostly).

   , . . . , . . .   , . . . , . . .   , . . . , . . .   , . . . , . . .
||-----------------|-----------------|-----------------|-----------------|
||-----------------|-----------------|-----------------|-----------------|
||-tap-------------|-----------------|-----------------|-----------------|
||-guitar----------|-----------------|-----------------|-----------------|
||-x-------x-------|-x-------x-------|-x-------x-------|-x-------x-------|
||-----------------|-----------------|-----------------|-----------------|


  , . . . , . . .   , . . . , . . .   , . . . , . . .   , . . . , . . .
|-----------------|-----------------|-----------------|-----------------|
|-----------------|-----------------|-----------------|---0-------0-----|
|-----------------|-----------------|-----------------|-------0-------0-|
|-----------------|-----------------|-----------------|-----2-------2---|
|-3-------2-------|-----------------|-----------------|-----------------|
|-----------------|-3---------------|-3-------2-------|-0-------0-------|


  , . . . , . . .   , . . . , . . .   , . . . , . . .   , . . . , . . .
|-----------------|-----------------|-----------------|-----------------||
|---1-------------|-----0h1---0-----|---0-------0-----|-----0-----0-----||
|-------0---0---0-|---------------0-|-------0-------0-|---------------0-||
|-----2-----------|-----0h2-----0---|-----0-------0---|-----2-------2---||
|-3-------2---0---|-----------------|-----------------|-----------------||
|-----------------|-3-------3-------|-3-------2-------|-0-------0-------||
  Mmm     mmm       mmm               Mmm     mmm       mmm    

   , . . . , . . .   , . . . , . . .   , . . . , . . .   , . . . , . . .
||-----------------|-----------------|-----------------|-----------------|
||---1-------------|-----0h1---0-----|---0-------0-----|---0-------0-----|
||-------0---0---0-|---------------0-|-------0-------0-|-------0-------0-|
||-----2-----------|-----0h2-----0---|-----0-------0---|-----2-------2---|
||-3-------2---0---|-----------------|-----------------|-----------------|
||-----------------|-3-------3-------|-3-------2-------|-0-------0-------|


  , . . . , . . .   , . . . , . . .   , . . . , . . .   , . . . , . . .
|-----------------|-----------------|-----------------|-----------------|
|---1-------------|-----0h1---0-----|---0-------0-----|-----0-----0-----|
|-------0---0---0-|---------------0-|-------0-------0-|---------------0-|
|-----2-----------|-----0h2-----0---|-----0-------0---|-----2-------2---|
|-3-------2---0---|-----------------|-----------------|-----------------|
|-----------------|-3-------3-------|-3-------2-------|-0-------0-------|
  

  , . . . , . . .   , . . . , . . .   , . . . , . . .   , . . . , . . .
|-----------------|-----------------|-----------------|-----------------|
|---1-------------|---0-------0-----|---1-------1-----|---0-------0-----|
|-------0---0---0-|-------0-------0-|-------0-------0-|---------------0-|
|-----2-----------|-----0-----------|-----2-----------|-----0h2-----2---|
|-3-------2---0---|-------------2---|-3-------2---0---|-----------------|
|-----------------|-3-------3-------|-----------------|-3-------3-------|


  , . . . , . . .   , . . . , . . .    , . . . , . . .   , . . . , . . .
|-----------------|-----0-----0-----||---0-------0-----|-----3-----3-----|
|---0-------0-----|-----0---------0-||-------1-------1-|-----0---------0-|
|-------0-------0-|-----------------||-----------------|-----------------|
|-----0-------0---|-----2-------2---||-----2-----------|-----0-------0---|
|-----------------|-----------------||-3-------2---0---|-----------------|
|-3-------2-------|-0-------0-------||-----------------|-3-------3-------|
                      

  , . . . , . . .   , . . . , . . .   , . . . , . . .   , . . . , . . .
|---3-------2-----|-----0-----0-----|---0-------0-----|-----3-----3-----|
|-------0-------0-|-----0---------0-|-------1-------1-|-----0---------0-|
|-----------------|-----------------|-----------------|-----------------|
|-----0-------0---|-----2-------2---|-----2-----------|-----0-------0---|
|-----------------|-----------------|-3-------2---0---|-----------------|
|-3-------2-------|-0-------0-------|-----------------|-3-------3-------|
 

  , . . . , . . .   , . . . , . . .   , . . . , . . .   , . . . , . . .
|---3-------2-----|-----0-----0-----|-----------------|-----------------|
|-------0-------0-|-----0---------0-|---1-------1-----|---0-------0-----|
|-----------------|-----------------|-------0-------0-|-------0-------0-|
|-----0-------0---|-----2-------2---|-----2-----------|-----0-----------|
|-----------------|-----------------|-3-------2---0---|-------------2---|
|-3-------2-------|-0-------0-------|-----------------|-3-------3-------|
  

  , . . . , . . .   , . . . , . . .   , . . . , . . .   , . . . , . . .
|-----------------|-----------------|-----------------|-----0-----0-----||
|---1-------1-----|-----0h1---0-----|---0-------0-----|-----0---------0-||
|-------0-------0-|---------------0-|-------0-------0-|-----------------||
|-----2-----------|-----0h2-----0---|-----0-------0---|-----2-------2---||
|-3-------2---0---|-----------------|-----------------|-----------------||
|-----------------|-3-------3-------|-3-------2-------|-0-------0-------||
                                                                    Now

   , . . . , . . .   , . . . , . . .   , . . . , . . .   , . . . , . . .
||-----------------|-----------------|-----------------|-----0-----------|
||---1-------1-----|-----0h1---0-----|---0-------0-----|-----0-----0-----|
||-------0-------0-|---------------0-|-------0-------0-|---------------0-|
||-----2-----------|-----0h2-----0---|-----0-------0---|-----2-------2---|
||-3-------2---0---|-----------------|-----------------|-----------------|
||-----------------|-3-------3-------|-3-------2-------|-0-------0-------|


  , . . . , . . .   , . . . , . . .   , . . . , . . .   , . . . , . . .
|-----------------|-----------------|-----------------|-----------------|
|---1-------1-----|-----0h1---0-----|---0-------0-----|-----0-----0-----|
|-------0-------0-|---------------0-|-------0-------0-|---------------0-|
|-----2-----------|-----0h2-----0---|-----0-------0---|-----2-------2---|
|-3-------2---0---|-----------------|-----------------|-----------------|
|-----------------|-3-------3-------|-3-------2-------|-0-------0-------|
  
[ Tab from: http://www.guitartabs.cc/tabs/s/simon_and_garfunkel/a_poem_on_the_underground_wall_tab.html ]
  , . . . , . . .   , . . . , . . .   , . . . , . . .   , . . . , . . .
|-----------------|-----------------|-----------------|-----------------||
|---1-------1-----|---0-------0-----|---0-------0-----|-----0-----0-----||
|-------0-------0-|-------0-------0-|-------0-------0-|---------------0-||
|-----2-----------|-----0-------0---|-----0-----------|-----2-------2---||
|-3-------2---0---|-----------------|-----------------|-----------------||
|-----------------|-3-------3-------|-3-------3---2---|-0-------0-------||
  

   , . . . , . . .   , . . . , . . .   , . . . , . . .
||-----------------|-----0-----------|-0---------------|
||---0-------0-----|-----0-----------|-0---------------|
||-------0-------0-|-----0-strum-----|-0-strum---------|
||-----2-------2---|-----2-----------|-2---------------|
||-----------------|-----2-----------|-2---------------|
||-0-------0-------|-0---0-----------|-0---------------|
                                     

  , . . . , . . .   , . . . , . . .   , . . . , . . .   , . . . , . . .
|-0---------------|-0---------------|-0---------------|-0---------------|
|-0---------------|-0---------------|-0---------------|-0---------------|
|-0-strum---------|-0-strum---------|-0-strum---------|-0-strum---------|
|-2---------------|-2---------------|-2---------------|-2---------------|
|-2---------------|-2---------------|-2---------------|-2---------------|
|-0---------------|-0---------------|-0---------------|-0---------------|
 

  , . . . , . . .   , . . . , . . .   , . . . , . . .   , . . . , . . .
|-2---------------|-2---------------|-2---------------|-2---------------|
|-3---------------|-3---------------|-3---------------|-3---------------|
|-2-strum---------|-2-strum---------|-2-strum---------|-2-strum---------|
|-0---------------|-0---------------|-0---------------|-0---------------|
|-0---------------|-0---------------|-0---------------|-0---------------|
|-----------------|-----------------|-----------------|-----------------|
 

3/4 . . . , . . . , . . .2/4, . . . , . . .   , . . . , . . .
|-0-----------------------|-0---------------|-0---------------|
|-1-----------------------|-1---------------|-1---------------|
|-0-strum-----------------|-2-strum---------|-2-strum---------|
|-2-----------------------|-2---------------|-2---------------|
|-3-----------------------|-0---------------|-0---------------|
|-------------------------|-----------------|-----------------|


  , . . . , . . .   , . . . , . . .   , . . . , . . .   , . . . , . . .
|-0---------------|-0---------------|-0---------------|-0---------------|
|-0---------------|-1---------------|-1---------------|-1---------------|
|-0-strum---------|-2-strum---------|-2-strum---------|-0-strum---------|
|-2---------------|-2---------------|-2---------------|-2---------------|
|-2---------------|-0---------------|-0---------------|-3---------------|
|-0---------------|-----------------|-----------------|-----------------|


  , . . . , . . .   , . . . , . . .   , . . . , . . .   , . . . , . . .
|-3---------------|-3-------3-------|-0---------------|-0---------------||
|-0---------------|-0-------0-------|-0---------------|-0---------------||
|-0-strum---------|-0-strum-0-strum-|-0-strum---------|-0-strum---------||
|-0---------------|-0-------0-------|-2---------------|-2---------------||
|-2---------------|-2-------2-------|-2---------------|-2---------------||
|-3---------------|-3-------2-------|-0---------------|-0---------------||
 

   , . . . , . . .   , . . . , . . .   , . . . , . . .   , . . . , . . .
||-----------------|-----------------|-----------------|-----------------|
||---1-------1-----|-----0-----0-----|---0-------0-----|-----0-----0-----|
||-------0-------0-|---------------0-|-------0-------0-|---------------0-|
||-----2-----------|-----0-------0---|-----0-------0---|-----2-------2---|
||-3-------2---0---|-----------------|-----------------|-----------------|
||-----------------|-3-------3-------|-3-------2-------|-0-------0-------|
 

  , . . . , . . .   , . . . , . . .   , . . . , . . .   , . . . , . . .
|-----------------|-----------------|-----------------|-----------------|
|-----1-----1-----|-----0-----0-----|-----0-----0-----|-----0-----0-----|
|---------------0-|---------------0-|---------------0-|---------------0-|
|-----2-----------|-----0-------0---|-----0-------0---|-----2-------2---|
|-3-------2---0---|-----------------|-----------------|-----------------|
|-----------------|-3-------3-------|-3-------2-------|-0-------0-------|
 

  , . . . , . . .   , . . . , . . .   , . . . , . . .   , . . . , . . .
|-----------------|-----------------|-----------------|-----0-----0-----||
|-----1-----1-----|-----0h1---0-----|---0-------0-----|-----0---------0-||
|---------------0-|---------------0-|-------0-------0-|-----------------||
|-----2-----------|-----0h2-----0---|-----0-------0---|-----2-------2---||
|-3-------2---0---|-----------------|-----------------|-----------------||
|-----------------|-3-------3-------|-3-------2-------|-0-------0-------||
 

   , . . . , . . .   , . . . , . . .   , . . . , . . .   , . . . , . . .
||---0-------------|-----------------|-----------------|-----0-----0-----|
||-----------1-----|-----0h1---0-----|---0-------0-----|-----0---------0-|
||-------0-------0-|---------------0-|-------0-------0-|-----------------|
||-----2-----------|-----0h2-----0---|-----0-------0---|-----2-------2---|
||-3-------2---0---|-----------------|-----------------|-----------------|
||-----------------|-3-------3-------|-3-------2-------|-0-------0------


  , . . . , . . .   , . . . , . . .   , . . . , . . .   , . . . , . . .
|---0-------------|-----------------|-----------------|-----------------|
|-----------1-----|-----0h1---0-----|---0-------0-----|-----0-----0-----|
|-------0-------0-|---------------0-|-------0-------0-|---------------0-|
|-----2-----------|-----0h2-----0---|-----0-------0---|-----2-------2---|
|-3-------2---0---|-----------------|-----------------|-----------------|
|-----------------|-3-------3-------|-3-------2-------|-0-------0-------|
 

  , . . . , . . .   , . . . , . . .   , . . . , . . .   , . . . , . . .
|---0-------0-----|---3-------2-----|---0-------2-----|-----------------|
|-----------------|-----------------|-----------------|-----------------|
|-------0-------0-|-------0-------0-|-------0-------0-|-----------------|
|-----2-------2---|-----0-------0---|-----0-------0---|-----------------|
|-3-------2-------|-----------------|-----------------|-----------------|
|-----------------|-3-------2-------|-0-------2-------|-----------------|
  

  , . . . , . . .   , . . . , . . .   , . . . , . . .   , . . . , . . .
|-0---------------|-----------------|-----------------|-----------------||
|-0---------------|-----------------|-----------------|-----------------||
|-0-------tap-----|-----------------|-----------------|-----------------||
|-2-------guitar--|-----------------|-----------------|-----------------||
|-2-------x-------|-x-------x-------|-x-------x-------|-x-------x-------||
|-0---------------|-----------------|-----------------|-----------------||
Comments