Simon And Garfunkel - 59th St Bridge Song Chords & Tabs

 

59th St Bridge Song Chords & Tabs

Simon And Garfunkel Chords & Tabs

Version: 3 Type: Tab 0 ratings
1 star 2 stars 3 stars 4 stars 5 stars
comments

59th St Bridge Song Tab

Because i have only been playing the guitar for a short time i found the other
tabs a bit hard so i just sat down and worked out the main guitar part which i
am very proud of

/slide

e--0---9---7---0--5---7---4--------0---9---7---0--5---7---/12---7-----------
B---------------------------------------------------------------------------
G---------------------------------------------------------------------------
D---------------------------------------------------------------------------
A---------------------------------------------------------------------------
E---------------------------------------------------------------------------

e--0---9---7---0--5---7---4--------0---9---7---0--5---7---/12---7-----------
B---------------------------------------------------------------------------
G---------------------------------------------------------------------------
D---------------------------------------------------------------------------
A---------------------------------------------------------------------------
E---------------------------------------------------------------------------
[ Tab from: http://www.guitartabs.cc/tabs/s/simon_and_garfunkel/59th_st_bridge_song_tab_ver_3.html ]
e--0---9---7---0--5---7---4--------0---9---7---0--5---7---/12---7-----------
B---------------------------------------------------------------------------
G---------------------------------------------------------------------------
D---------------------------------------------------------------------------
A---------------------------------------------------------------------------
E---------------------------------------------------------------------------

e--0---9---7---0--5---7---4--------0---9---7---0--5---7---/12---7-----------
B---------------------------------------------------------------------------
G---------------------------------------------------------------------------
D---------------------------------------------------------------------------
A---------------------------------------------------------------------------
E---------------------------------------------------------------------------

e--0---9---7---0--5---7---4--------0---9---7---0--5---7---/12---7-----------
B---------------------------------------------------------------------------
G---------------------------------------------------------------------------
D---------------------------------------------------------------------------
A---------------------------------------------------------------------------
E---------------------------------------------------------------------------

e--0---9---7---0--5---7---4--------0---9---7---0--5---7---/12---7-----------
B---------------------------------------------------------------------------
G---------------------------------------------------------------------------
D---------------------------------------------------------------------------
A---------------------------------------------------------------------------
E---------------------------------------------------------------------------

End of song 

If you have any tips on tabbing or any easy tabs or any problems with this one
please email me at rambo_herbie@hotmail.com
Comments