Silvio Rodriguez - Ojala Chords & Tabs

 

Ojala Chords & Tabs

Silvio Rodriguez Chords & Tabs

Version: 2 Type: Tab 0 ratings
1 star 2 stars 3 stars 4 stars 5 stars
comments

Ojala Tab

D||-------------10----------------------9----------|---------------8-----------------------7------------|
A||---------10----------10---------10---------10--|---------10---------10---------10---------10---------|
F||-----10----------10---------10---------10------|-----10---------10---------10---------10-------------|
C||--0-----------------------0-----------------------|--0----------------------0------------------------|
G||-----------------------------------------------|-----------------------------------------------------|
D||-----------------------------------------------|-----------------------------------------------------|

-------------10-----------------------9----------|--------------8----------------------7-------------|
---------10----------10---------10---------10--|---------10---------10---------10---------10---------|
-----10----------10---------10---------10------|-----10---------10---------10---------10-------------|
--0-----------------------0-----------------------|--0-----------------------0-----------------------|
-----------------------------------------------|-----------------------------------------------------|
-----------------------------------------------|-----------------------------------------------------|

--------------10-----------------------9----------|--------------8-----------------------7------------|
 ---------10----------10---------10---------10--|---------10---------10---------10---------10---------|
-----10----------10---------10---------10------|-----10---------10---------10---------10--------------|
--0-----------------------0-----------------------|--0-----------------------0------------------------|
-----------------------------------------------|------------------------------------------------------|
-----------------------------------------------|------------------------------------------------------|

-------------10----------------------9----------|---------------8----------------------7------------|
---------10----------10---------10---------10--|---------10---------10---------10---------10--------|
-----10----------10---------10---------10------|-----10---------10---------10---------10------------|
--0------------------------0---------------------|---0----------------------0-----------------------|
-----------------------------------------------|----------------------------------------------------|
-----------------------------------------------|----------------------------------------------------|

-----------8------------------8--------|-----------8-------------------8----------|
--------8--------8---------8--------8--|--------8--------8---------8--------8-----|
-----9--------9---------9--------9-----|-----9--------9---------9--------9--------|
--------------------10-----------------|---------------------10-------------------|
---------------------------------------|------------------------------------------|
--8------------------------------------|--8---------------------------------------|

-------------10----------------------9----------|---------------8----------------------7------------|
---------10----------10---------10---------10--|---------10---------10---------10---------10--------|
-----10----------10---------10---------10------|-----10---------10---------10---------10------------|
--0----------------------0-------------------------|-0----------------------0-----------------------|
-----------------------------------------------|----------------------------------------------------|
-----------------------------------------------|----------------------------------------------------|

-----------7-----------------7--------|------------5------------------5--------|-----------5-----------------4------|
--------8--------8--------8--------8--|--------5--------5--------5--------5--|--------6--------6--------5--------5--|
-----9--------9--------9--------9-----|-----6--------6--------6--------6-----|-----7--------7--------6--------6-----|
--------------------9-------------------|--------------------7-----------------|------------------------------------|
--7--------------------------------------|--------------------------------------|--5-----------------4--------------|
----------------------------------------|--5-----------------------------------|------------------------------------|

-----------2-----------------2---------|-----------5-----------------5---------|-----------3-----------------2------|
--------3--------3--------3--------3--|--------5--------5--------5--------5--|--------3--------3--------2--------2--|
-----4--------4--------4--------4-----|-----6--------6--------6--------6-----|-----4--------4--------3--------3-----|
----------------------------------------|--------------------7------------------|-----------------------------------|
--2-----------------0------------------|----------------------------------------|-----------------------------------|
----------------------------------------|--5-------------------------------------|--3-----------------2-------------|

-----------2-----------------2---------|-----------0--------------0--------0---|-----------1-----------------1------|
--------3--------3--------3--------3--|--------0--------0-----0--------0-----|--------3--------3--------3--------3--|
-----4--------4--------4--------4-----|-----1--------1-----2--------1--------|-----2--------2--------2--------2-----|
----------------------------------------|----------------------------------------|--0-------------------------------|
--2-----------------0------------------|----------------------------------------|--------------------3--------------|
---------------------------------------|--0-------------------------------------|-----------------------------------|

-----------0-----------------0---------|-------------10----------------------9------------|
--------3--------3--------2--------2--|---------10----------10---------10---------10------|
-----0--------0--------2--------2-----|-----10----------10---------10---------10----------|
----------------------------------------|--0----------------------0-----------------------|
--1-----------------0-----------------|---------------------------------------------------|
--------------------------------------|---------------------------------------------------|

-------------8-----------------------7------------|------------10-----------------------9------------|
---------10---------10---------10---------10--|---------10----------10---------10---------10---------|
-----10---------10---------10---------10------|-----10----------10---------10---------10-------------|
--0----------------------0------------------------|--0-----------------------0-----------------------|
-------------------------------------------------|---------------------------------------------------|
-------------------------------------------------|---------------------------------------------------|

-------------8-----------------------7-----------|------------8------------------8----------|
---------10---------10---------10---------10--|--------8--------8---------8--------8--------|
-----10---------10---------10---------10------|-----9--------9---------9--------9-----------|
--0---------------------0------------------------|--------------------10--------------------|
--------------------------------------------------|-----------------------------------------|
--------------------------------------------------|--8--------------------------------------|

-----------8------------------8--------|-------------8---------------------8-----------|-----------3------|
--------8--------8---------8--------8--|---------9---------9-----------9----------9--|--------3--------3--|
-----9--------9---------9--------9-----|-----10--------10---------10--------10-----|-----4--------4-------|
--------------------10-----------------|------------------------10---------------------|------------------|
---------------------------------------|----8-------------------------------------------|-----------------|
--8------------------------------------|------------------------------------------------|--3--------------|

--------------8----------------------7----------|--------------8-------------------8-------------|
---------10---------10---------10---------10--|---------8---------8---------8--------8-----------|
-----10---------10---------10---------10------|-----9---------9----------9--------9--------------|
--0---------------------0---------------------|-------------------------10-----------------------|
-------------------------------------------------|-----------------------------------------------|
----------------------------------------------|-----8--------------------------------------------|

-----------8------------------8--------|-------------8---------------------8---------------|
--------8--------8---------8--------8--|---------9---------9-----------9---------9---------|
-----9--------9---------9--------9-----|-----10--------10---------10--------10-------------|
--------------------10-----------------|-----------------------10--------------------------|
---------------------------------------|--8------------------------------------------------|
--8------------------------------------|---------------------------------------------------|

-----------3-----------------3--------|------------3-----------------3-----------|
--------3--------3--------3--------3--|--------3--------3--------3--------3------|
-----4--------4--------4--------4-----|-----4--------4--------4--------4---------|
--------------------5-----------------|----------------------5-------------------|
--------------------------------------|------------------------------------------|
--3-----------------------------------|--3---------------------------------------|

-------------10-----------------------9----------|---------------8----------------------7------------|
---------10----------10---------10---------10--|---------10---------10---------10---------10---------|
-----10----------10---------10---------10------|-----10---------10---------10---------10-------------|
--0-----------------------0-----------------------|--0-----------------------0-----------------------|
-----------------------------------------------|-----------------------------------------------------|
-----------------------------------------------|-----------------------------------------------------|
[ Tab from: http://www.guitartabs.cc/tabs/s/silvio_rodriguez/ojala_tab_ver_2.html ]
-------------10----------------------9----------|---------------8----------------------7-------------|
---------10----------10---------10---------10--|---------10---------10---------10---------10---------|
-----10----------10---------10---------10------|-----10---------10---------10---------10-------------|
--0-----------------------0-----------------------|--0-----------------------0-----------------------|
-----------------------------------------------|-----------------------------------------------------|
-----------------------------------------------|-----------------------------------------------------|

-------------10-----------------------9----------|---------------8----------------------7--------------|
---------10----------10---------10---------10--|---------10---------10---------10---------10-----------|
-----10----------10---------10---------10------|-----10---------10---------10---------10---------------|
--0-----------------------0-----------------------|--0-----------------------0-------------------------|
-----------------------------------------------|-------------------------------------------------------|
-----------------------------------------------|-------------------------------------------------------|

-------------10----------------------9------------|-------------8----------------------7-------------|
---------10----------10---------10---------10--|---------10---------10---------10---------10---------|
-----10----------10---------10---------10------|-----10---------10---------10---------10-------------|
--0-----------------------0-----------------------|--0-----------------------0-----------------------|
-----------------------------------------------|-----------------------------------------------------|
-----------------------------------------------|-----------------------------------------------------|

-----------8------------------8--------|-------------8------------------8----------|
--------8--------8---------8--------8--|--------8--------8---------8--------8------|
-----9--------9---------9--------9-----|-----9--------9---------9--------9---------|
--------------------10-----------------|---------------------10--------------------|
---------------------------------------|-------------------------------------------|
--8------------------------------------|--8----------------------------------------|

-------------10-----------------------9-----------|--------------8----------------------7------------|
---------10----------10---------10---------10--|---------10---------10---------10---------10---------|
-----10----------10---------10---------10------|-----10---------10---------10---------10-------------|
--0------------------------0----------------------|--0-----------------------0-----------------------|
-----------------------------------------------|-----------------------------------------------------|
-----------------------------------------------|-----------------------------------------------------|

-----------7-----------------7--------|------------5-----------------5--------|------------5-----------------4------|
--------8--------8--------8--------8--|--------5--------5--------5--------5--|--------6--------6--------5--------5--|
-----9--------9--------9--------9-----|-----6--------6--------6--------6-----|-----7--------7--------6--------6-----|
--------------------9-----------------|----------------------7-----------------|------------------------------------|
--7-----------------------------------|-----------------------------------------|--5------------------4-------------|
--------------------------------------|--5-----------------------------------|--------------------------------------|

-----------2-----------------2--------|------------5-----------------5--------|------------3------------------2------|
--------3--------3--------3--------3--|--------5--------5--------5--------5--|--------3--------3--------2---------2--|
-----4--------4--------4--------4-----|-----6--------6--------6--------6-----|-----4--------4--------3---------3-----|
--------------------------------------|-----------------------7-----------------|------------------------------------|
--2-----------------0-----------------|----------------------------------------|-------------------------------------|
--------------------------------------|--5-------------------------------------|--3-------------------2--------------|

-----------2-----------------2--------|------------0--------------0--------0--|------------1-----------------1------|
--------3--------3--------3--------3--|--------0--------0-----0--------0-----|--------3--------3--------3--------3--|
-----4--------4--------4--------4-----|-----1--------1-----2--------1--------|-----2--------2--------2--------2-----|
--------------------------------------|------------------------------------------|--0-------------------------------|
--2-----------------0-----------------|--------------------------------------|-----------------------3--------------|
---------------------------------------|--0-----------------------------------|-------------------------------------|

-----------0-----------------0---------|-------------10----------------------9--------------|
--------3--------3--------2--------2--|---------10----------10---------10---------10--------|
-----0--------0--------2--------2-----|-----10----------10---------10---------10------------|
----------------------------------------|--0------------------------0-----------------------|
--1-----------------0-----------------|-----------------------------------------------------|
--------------------------------------|-----------------------------------------------------|

-------------8-----------------------7----------|--------------10----------------------9-------------|
---------10---------10---------10---------10--|---------10----------10---------10---------10---------|
-----10---------10---------10---------10------|-----10----------10---------10---------10-------------|
--0-----------------------0----------------------|--0------------------------0-----------------------|
----------------------------------------------|------------------------------------------------------|
----------------------------------------------|------------------------------------------------------|

-------------8-----------------------7----------|------------8------------------8----------|
---------10---------10---------10---------10--|--------8--------8---------8--------8-------|
-----10---------10---------10---------10------|-----9--------9---------9--------9----------|
--0---------------------0---------------------|-----------------------10-------------------|
----------------------------------------------|--------------------------------------------|
----------------------------------------------|----8---------------------------------------|

-----------8-------------------8--------|--------------8--------------------8-------------|-------------3----|
--------8--------8---------8--------8--|----------9---------9----------9----------9-----|--------3--------3--|
-----9--------9---------9--------9-----|-----10--------10---------10--------10-----|-----4---------4---------|
--------------------10-----------------|------------------------10---------------------|---------------------|
---------------------------------------|--8----------------------------------------------|-------------------|
--8------------------------------------|-------------------------------------------------|--3----------------|

-------------10----------------------9----------|---------------8-----------------------7-----------|-----------8------------------8--|
----------10----------10--------10---------10--|---------10---------10---------10---------10--|--------8--------8---------8--------8--|
-----10----------10---------10---------10------|-----10---------10---------10---------10------|-----9--------9---------9--------9-----|
--0----------------------0-----------------------|--0----------------------0------------------------|--------------------10-----------|
------------------------------------------------|-----------------------------------------------------|-------------------------------|
-----------------------------------------------|------------------------------------------------------|--8----------------------------|

-----------8------------------8--------|------------8----------------------8--------------|
--------8--------8---------8--------8--|---------9----------9----------9----------9-------|
-----9--------9---------9--------9-----|-----10--------10---------10--------10------------|
--------------------10-----------------|------------------------10------------------------|
---------------------------------------|--8-----------------------------------------------|
--8------------------------------------|--------------------------------------------------|

-----------3-----------------3--------|-----------3------------------3--------|-----------0------------------0------|
--------3--------3--------3--------3--|--------3--------3--------3--------3--|--------1--------1--------0--------0--|
-----4--------4--------4--------4-----|-----4--------4--------4--------4-----|-----0--------0--------0--------0-----|
--------------------5-----------------|----------------------5-----------------|------------------------------------|
--------------------------------------|------------------------------------------|--3-----------------2-------------|
--3-----------------------------------|--3--------------------------------------|-----------------------------------|

-----------0-----------------0--------|-----------1------------------0------------|
--------1--------1--------0--------0--|--------1--------1--------0--------0-------|
-----2--------2--------0--------0-----|-----2--------2--------0--------0----------|
--------------------------------------|-----------------------2-------------------|
--0-----------------------------------|-------------------------------------------|
--------------------3-----------------|--1----------------------------------------|

-------------10----------------------9------------|-------------8----------------------7------------|
---------10----------10---------10---------10--|---------10---------10---------10---------10--------|
-----10----------10---------10---------10------|-----10---------10---------10---------10------------|
--0----------------------0------------------------|--0---------------------0------------------------|
---------------------------------------------------|------------------------------------------------|
---------------------------------------------------|------------------------------------------------|

-----------8------------------8--------|----------------------8--------------------8--|--------------------8---8---|
--------8--------8---------8--------8--|------------8h-10---------------8h-10-----|------------8h-10-----8---------|
-----9--------9---------9--------9-----|---------9--------------------9------------|---------9----------------9----|
--------------------10-----------------|------------------------------------------|----------------------------10--|
---------------------------------------|-----10-------------------10---------------|-----10------------------------|
--8------------------------------------|--8---------------------8-------------------|--8---------------------------|
Comments