Silvertide - You Want It All Chords & Tabs

 

You Want It All Chords & Tabs

Silvertide Chords & Tabs

Version: 1 Type: Tab 0 ratings
1 star 2 stars 3 stars 4 stars 5 stars
comments

You Want It All Tab

   
Perri is wild in this song! Enjoy!
Silvertide
You want it all
By: Rolli Mac & Kalan Marshall

( ) = carry on note
~ = vibroto
p = pull off
ph = pinch hirmonics
T = Tap
^ = Bend
Pm & . = palm mute
l^ = Pre bend
o = full pinch harmonic
* = harmonic


Both guitars tuned to -Eb-Ab-Db-Gb-Bb-Eb-

eb:---|---|---|---|---|------|-------------------|
Bb:---|---|---|---|---|------|-------------------|
Gb:---|---|-2-|---|---|----4-|-------------------|
Db:-2-|-4-|-2-|-4-|-2-|-4--4-|-------------------|
Ab:-2-|-4-|-0-|-4-|-2-|-4--2-|-------------------|
Eb:-0-|-2-|---|-2-|-0-|-2----|-------------------|

Lead
eb:------------------------------------------|
Bb:full----->--------------------------------|
Gb:-4^-(4)(4)-2--4-2-------------------------|
Db:------------------4-----------------------|
Ab:------------------------------------------|
Eb:------------------------------------------|

Rythme
eb:---|---|---|---|---|---|---|---|-------------------|
Bb:---|---|---|---|---|---|---|---|-------------------|
Gb:---|---|-2-|---|---|---|-4-|---|-2~(2)-4~(4)-------|
Db:-2-|-4-|-2-|-4-|-2-|-4-|-4-|-4-|-2~(2)-4~(4)-------|
Ab:-2-|-4-|-0-|-4-|-2-|-4-|-2-|-4-|-0~(0)-2~(2)-------|
Eb:-0-|-2-|---|-2-|-0-|-2-|---|-2-|-------------------|

eb:full-----------------------------------------------------|
Bb:-5^~-2p0--full---------T---------------------------------|
Gb:----------------2--5^~-9\6---4p2-------------------------|
Db:-(while-5-bending-tap-on-9-and-slide to six)-------------|
Ab:(then release the bend at 6 and pull off 4-2)------------|
Eb:---------------------------------------------------------|

eb:-------------------------------|----------------------------------------|
Bb:full---------full--------------|----------------------------------------|
Gb:ph4^-------2-ph4^--2~~~~~~~----|----------------------------------------|
Db:-----2-2p4------------------2~~|~(2)-4--2-------------------------------|
Ab:-------------------------------|-----------2^-0-------------------------|
Eb:-------------------------------|----------------1/4bend-2~(2)-/12\9/14\-|

Verse   x3      x3      x3      x3
eb:---|---|---|---|---|---|---|---|-------------------|
Bb:---|---|---|---|---|---|---|---|-------------------|
Gb:---|---|-2-|---|---|---|-4-|---|-2~(2)-4~(4)-------|
Db:-2-|-4-|-2-|-4-|-2-|-4-|-4-|-4-|-2~(2)-4~(4)-------|
Ab:-2-|-4-|-0-|-4-|-2-|-4-|-2-|-4-|-0~(0)-2~(2)-------|
Eb:-0-|-2-|---|-2-|-0-|-2-|---|-2-|-------------------|

Pre-chorus
eb:----------------|---------------------------|
Bb:-3------2-------|---------------------------|
Gb:-2-444----4-2p4-|-2~~(2)-----------x\-------|
Db:-0--------------|--------4-4h7p4-4-x\\------|
Ab:----------------|--------------------\\-----|
Eb:----------------|---------------------\\----|
    Pm...]                         pick scrape
[ Tab from: http://www.guitartabs.cc/tabs/s/silvertide/you_want_it_all_tab.html ]
Chorus
eb:------------------------------------------|
Bb:------------------------------------------|
Gb:----2~~---4~~-----------------------------|
Db:-4~~2~~2~~4~~-----------------------------|
Ab:-4~~0~~2~~2~~-----------------------------|
Eb:-2~~---0~~--------------------------------|

        x3      x3      x3      x3
eb:---|---|---|---|---|---|------|
Bb:---|---|---|---|---|---|------|
Gb:---|---|-2-|---|---|---|------|
Db:-2-|-4-|-2-|-4-|-2-|-4-|------|
Ab:-2-|-4-|-0-|-4-|-2-|-4-|-l^6~-|
Eb:-0-|-2-|---|-2-|-0-|-2-|------|

.Back to verse pre-chorus and chorus agian then this.

In chords for chorus 2
D5 E5 then see below
eb:---|---------------------------------------|
Bb:---|---------------------------------------|
Gb:---|-------2------------------A5-----------|
Db:---|-2-444-2-444-4-5-----------------------|
Ab:---|-2-444-0-444-4-5-----------------------|
Eb:---|-0-222---222-2-3-----------------------|


Guitar 2
eb:--------------------|---------------------------------|
Bb:--------------------|20~~(20)---20^--20^~(20)-17^(17)-|
Gb:2~~-----------------|---------------------------------|
Db:--------------------|---------------------------------|
Ab:--------------------|---------------------------------|
Eb:--------------------|---------------------------------|

Guitar 2       2       2   2
eb:-----------------------------|
Bb:----10^-----12^----14^-15^---|
Gb:-44------44-----77-----------|Feed Back
Db:-44------44-----77-----22----|
Ab:-24------22-----55-----22----|
Eb:-----------------------00----|
gt1  1       1      1      1
                        x8
eb:--------T----T----------------------------|
Bb:-----7--10-7-9-7p4/2----------------------|
Gb:-6/8--------------------------------------|
Db:------------------------------------------|
Ab:------------------------------------------|
Eb:------------------------------------------|

eb:-------------------------------------------|
Bb:-------------.--4^~(4)--o2~~---------------|
Gb:-4^(4)^~4-2--4-------------*4*2*4x---------|
Db:---------------------------------x\--------|
Ab:----------------------------------\\-------|
Eb:-----------------------------------\\------|
                Wah turn on
eb:--------------|-------------------------------------|
Bb:--------------|--------2-1-0---0-1-2-1-0--------5^~-|
Gb:------------^4|-2---x--------2-----------2---2------|
Db:*4~~~*2-------|-----x----------------------4--4-----|
Ab:---------2^---|-------------------------------------|
Eb:--------------|-------------------------------------|

eb:-12^-12-9----12^-12-9-12-17^-17-14-17-19^\(19)-17-19^-|
Bb:----------10------------------------------------------|
Gb:------------------------------------------------------|
Db:------------------------------------------------------|
Ab:------------------------------------------------------|
Eb:------------------------------------------------------|

gt2
eb:----------------------------------------------------|
Bb:-10^-10-----10^-10----10--17^-17----17-17^(17)--17^-|
Gb:-------11----------11------------18-----------18----|
Db:---------12-----------------------------------------|
Ab:----------------------------------------------------|
Eb:----------------------------------------------------|

Back into chorus yaddy yadda. Its about time someone got more silvetide tabs up.
Come everyone get more Im going to be working on some to!
Comments