Silvertide - To See Where I Hide Chords & Tabs

 

To See Where I Hide Chords & Tabs

Silvertide Chords & Tabs

Version: 1 Type: Tab 0 ratings
1 star 2 stars 3 stars 4 stars 5 stars
comments

To See Where I Hide Tab

   
Silvertide-To See Where I Hide
Tuning-Standard
brownbagspecial@hotmail.com

Verse:
e[----------------------------------------------------]
B[----------------------------------------------------]
G[--------------------------------------7-5-----------]
D[-0-0-0-0-3-0-0-5-0-0-6--6/7---0-0-0-0-----7\5-------]
A[----------------------------------------------------]
E[----------------------------------------------------]
[ Tab from: http://www.guitartabs.cc/tabs/s/silvertide/to_see_where_i_hide_tab.html ]
Chorus:
   Bb        A         Bb        C
e[----------------------------------------------------]
B[----------------------------------------------------]
G[-3--3-3-3--2--2-2-2--3--3-3-3--5--5-5-5-------------]
D[-3--3-3-3--2--2-2-2--3--3-3-3--5--5-5-5-------------]
A[-1--1-1-1--0--0-0-0--1--1-1-1--3--3-3-3-------------]
E[----------------------------------------------------]

End of 2nd Chorus:
    C/D DDD  C DDDD
e[--------------------]
B[------------- ------]
G[--5/7-777--5-7777---]x3
D[--xxx-xxx--x-xxxx---]
A[--3/5-555--3-5555---]
E[--------------------]
    C/D DDD   D(let ring)          
e[--------------------]
B[--------------------]
G[--5/7-777---7-------]x1
D[--xxx-xxx---x-------]
A[--3/5-555---5-------]
E[--------------------]

Bridge:
   D         C         D         F
e[-------------------------------------------------]
B[-------------------------------------------------]
G[-7--7-7-7--5--5-5-5--7--7-7-7--------------------]
D[-7--7-7-7--5--5-5-5--7--7-7-7--3--3-3-3----------]x2
A[-5--5-5-5--3--3-3-3--5--5-5-5--3--3-3-3----------]
E[-------------------------------1--1-1-1----------]
Comments