Silvertide - Aint Coming Home Chords & Tabs

 

Aint Coming Home Chords & Tabs

Silvertide Chords & Tabs

Version: 2 Type: Tab 0 ratings
1 star 2 stars 3 stars 4 stars 5 stars
comments

Aint Coming Home Tab

   
This is the opening track to the best album of the year.

Can only tab the rhythm part, solo is too hard.

Standard Tuning (eadgbe)

Use Power Chords E,A,D

Verses + Chorus:

e------------------------------------------|
b------------------------------------------|
g-----------------------7--7---------------|
d--2------7--7--7--7----7--7----7--7--7--7-|
a--2------7--7--7--7----5--5----7--7--7--7-|
e--0------5--5--5--5------------5--5--5--5-|

Bridge:
[ Tab from: http://www.guitartabs.cc/tabs/s/silvertide/aint_coming_home_tab_ver_2.html ]
e-------------------------------------------------------------------------|
b-------------------------------------------------------------------------|
g---------------------7--7--7--7--7--7------------------------------------|
d--5--5--5--5--5--5---7--7--7--7--7--7     Reapeat X3 then straight into--|
a--5--5--5--5--5--5---5--5--5--5--5--5------------------------------------|
e--3--3--3--3--3--3-------------------------------------------------------|

e-------------------------------|
b-------------------------------|
g-------------------------------|
d--7--7--7--7--7--7--7--7--7--7-|
a--7--7--7--7--7--7--7--7--7--7-|
e--5--5--5--5--5--5--5--5--5--5-|
Comments