Silvertide - Aint Comin Home Chords & Tabs

 

Aint Comin Home Chords & Tabs

Silvertide Chords & Tabs

Version: 1 Type: Bass Tab 0 ratings
1 star 2 stars 3 stars 4 stars 5 stars
comments

Aint Comin Home Bass Tab

you can play most of this song with one hand if you wanted to
[ Tab from: http://www.guitartabs.cc/tabs/s/silvertide/aint_comin_home_btab.html ]
--------------------------------------------------------9-7-5-0-|
-/14-14-14-14-14-12-14-12-16-14-12-0--------------9-7-0---------|
-------------------------------------7-7-7-7-7-7-7--------------|
----------------------------------------------------------------|


----------------------------------------------|
----------------------------------------------|
---------5------------------------------------|
-0--5-5----5--5-5-5---------------------------|

(all lyrics here)
Comments