Silverstein - Your Sword Versus My Dagger Chords & Tabs

 

Your Sword Versus My Dagger Chords & Tabs

Silverstein Chords & Tabs

Version: 2 Type: Tab

Your Sword Versus My Dagger Tab

Silverstein - Your Sword Versus My Dagger

Drop D Tuning          figure out the strumming for yourself...not to hard


Gt.1            Intro 
E|--------------------------------------------------------------------------|
B|--------------------------------------------------------------------------|
G|--------------------------------------------------------------------------|
D|-------2---3-2--------2---3-2---------------------------------------------|
A|-0p3p5---0------0p3p5---0-----3-------------------------------------------|
D|--------------------------------------------------------------------------|

Gt.2            Intro 
E|--------------------------------------------------------------------------|
B|--------------------------------------------------------------------------|
G|---------10-10-10/-12--9---------------------------------------------------|
D|-7-5------x--x--x---x--x---------------------------------------------------|
A|-----7----8--8—-8/-10--7---------------------------------------------------|
D|--------------------------------------------------------------------------|

Verse  “im cutting through…”                  “…and I would tell the truth”    
E|--------------------------------------------------------------------------|
B|--------------------------------------------------------------------------|
G|--------------------------------------------------------------------------|
D|-0-0-0-0---8-8-8-8--------------3-3-3-3---10-10-10-10---------------------|
A|-0-0-0-0---8-8-8-8--------------3-3-3-3---10-10-10-10---------------------|
D|-0-0-0-0---8-8-8-8--------------3-3-3-3---10-10-10-10---------------------|

Gt.2 Pre Chorus     “I wasn’t asking for the world…”
E|--------------------------------------------------------------------------|
B|--------------------------------------------------------------------------|
G|--------------------------------------------------------------------------|
D|-8-8-8-8-8---10-10-10-10-10-----------------------------------------------|
A|-8-8-8-8-8---10-10-10-10-10-----------------------------------------------|
D|-8-8-8-8-8---10-10-10-10-10-----------------------------------------------|
[ Tab from: http://www.guitartabs.cc/tabs/s/silverstein/your_sword_versus_my_dagger_tab_ver_2.html ]
Gt.1 Pre Chorus 
E|--------------------------------------------------------------------------|
B|--------------------------------------------------------------------------|
G|--------------------------------------------------------------------------|
D|-------2---3-2--------2---3-2---------------------------------------------|
A|-0p3p5---0------0p3p5---0-----3-------------------------------------------|
D|--------------------------------------------------------------------------|

Gt.1 and 2  “All these city streets the people look the same…”
E|--------------------------------------------------------------------------|
B|--------------------------------------------------------------------------|
G|--------------------------------------------------------------------------|
D|-8-8-8-8--10-10-10-10--0-0-0-0--3-3-3-3-----------------------------------|
A|-8-8-8-8--10-10-10-10--0-0-0-0--3-3-3-3-----------------------------------|
D|-8-8-8-8--10-10-10-10--0-0-0-0--3-3-3-3-----------------------------------|

Gt.1 Bridge

E|--------------------------------------------------------------------------|
B|--------------------------------------------------------------------------|
G|-0-0-0-2-0-3-2-----0-0-0-2-0-3-2-0----8-8-8-8-10-10-10-10-----------------|
D|-0-0-0-2-0-3-2-----0-0-0-2-0-3-2-0----8-8-8-8-10-10-10-10-----------------|
A|-0-0-0-2-0-3-2-----0-0-0-2-0-3-2-0----8-8-8-8-10-10-10-10-----------------|
E|--------------------------------------------------------------------------|

*palm muted
“Drink the poison when you think its over…”

E|--------------------------------------------------------------------------|
B|--------------------------------------------------------------------------|
G|--------------------------------------------------------------------------|
D|-0-0-0-0-0-0-0-0-3-3-3-3-3-3-3-3-8-8-8-8-8-8-8-8-10-10-10-10-8-8-7-7------|
A|-0-0-0-0-0-0-0-0-3-3-3-3-3-3-3-3-8-8-8-8-8-8-8-8-10-10-10-10-8-8-7-7------|
E|-0-0-0-0-0-0-0-0-3-3-3-3-3-3-3-3-8-8-8-8-8-8-8-8-10-10-10-10-8-8-7-7------|



Gt.2 Bridge

E|--------------------------------------------------------------------------|
B|--------------------------------------------------------------------------|
G|-7-7-7-7-7-7-7-7-5-5-5-5-5-5-5-5-10-10-10-10-10-10-10-10------------------|
D|-x-x-x-x-x-x-x-x-x-x-x-x-x-x-x-x--x--x--x--x--x--x--x--x------------------|
A|-5-5-5-5-5-5-5-5-3-3-3-3-3-3-3-3--8--8--8--8--8--8--8--8------------------|
E|--------------------------------------------------------------------------|



E|--------------------------------------------------------------------------|
B|--------------------------------------------------------------------------|
G|-14-14-14-14-12-12-12/-14/-12---------------------------------------------|
D|--x--x--x--x--x--x--x---x---x---------------------------------------------|
A|-12-12-12-12-10-10-10/-12/-10---------------------------------------------|
E|--------------------------------------------------------------------------|