Silverstein - Smile In Your Sleep Chords & Tabs

 

Smile In Your Sleep Chords & Tabs

Silverstein Chords & Tabs

Version: 2 Type: Tab 0 ratings
1 star 2 stars 3 stars 4 stars 5 stars
comments

Smile In Your Sleep Tab

   
A lot of the tabs on here were close, but none of them were dead on, so here you go:

X = Scratch
P = Palm Muted
* = Pinch Harmonic
P = Pull off
H = Hammer

The intro is all tapped, and beside each note I've marked an L or R to indicate which finger does the tapping.

Intro/Verse-
E--------------------------------------------------------------------------
B--------------------------------------------------------------------------
G------------------------------------------14R------14R-p-11L-p-0-h-12R----
D-----9L-----------9L--17R------16R------9L--------------------------------
A--7L-----15R--7L-----------7L-------7L---------7L-------------------------
E--------------------------------------------------------------------------

^^Play Twice^^

E--------------------------------------------------------------------------
B--------------------------------------------------------------------------
G-------------------------------------------------------11R-p-7L-p-0-h-9R--
D------5L---12R------5L--14R------12R------5L--11R-------------------------
A--3L------------3L-----------3L-------3L-----------3L---------------------
E--------------------------------------------------------------------------
[ Tab from: http://www.guitartabs.cc/tabs/s/silverstein/smile_in_your_sleep_tab_ver_2.html ]
E-------------------------------------------------------------------------
B-------------------------------------------------------------------------
G----------12R----------11R------9R-----------------------11R------12R----
D------7L-----------7L-------------------7L--12R------7L------------------
A--5L-----------5L-----------5L------5L-----------5L-----------5L---------
E-------------------------------------------------------------------------

Chorus(Rhythm):
E--------------|--------------------|--------------|--------------|
B--------------|--------------------|--------------|--------------|
G--9--9--9--9--|--5--5--5------5----|--9--9--9--9--|--5--5--5--5--|
D--9--9--9--9--|--5--5--5------5----|--9--9--9--9--|--5--5--5--5--|
A--7--7--7--7--|--3--3--3------3----|--7--7--7--7--|--3--3--3--3--|
E--7--7--7--7--|--3--3--3--3-3------|--7--7--7--7--|--3--3--3--3--|

                           P P 



Lead(Begins Halfway through):

E---------------------|            E-------------------|
B---------------------|            B-------------------|
G---------------------|x4, then:   G-------------------|x2, then:
D------9---9---7-7----|            D------5---5---4-4--|
A--7-7---7---7--------|            A--3-3---3---3------|
E---------------------|            E-------------------|
   P P   P   P                        P P   P   P


E------------------------------------|
B------------------------------------|
G------3-----3-----3-----3-----3*----|
D------------------------------------|
A--3-3---3-3---3-3---3-3---3-3-------|
E------------------------------------|
   P P   P P   P P   P P   P P




Back to the Verse again, with this playing in the background:

E---------|---------|---------|---------|
B---------|---------|---------|---------|
G---------|---------|---------|---------|
Comments