Silverstein - Smile In Your Sleep Chords & Tabs

 

Smile In Your Sleep Chords & Tabs

Silverstein Chords & Tabs

Version: 1 Type: Bass Tab 0 ratings
1 star 2 stars 3 stars 4 stars 5 stars
comments

Smile In Your Sleep Bass Tab

   
-------------------------------------------------------------------------------
			     Smile in Your Sleep - Silverstein
-------------------------------------------------------------------------------

Tabbed By : Andrew
e-mail: AndrewtotheAwesome@gmail.com

Tuning: Standard EADGBE

Intro:
g|-----------------------------------------------------------------------------|
d|-----------------------------------------------------------------------------|
a|-7-7-7-7-7-r-7-7-7-7-7-r-----------------------------------------------------|x1
e|--------------------------8-8-8-8-8-r-10-10-10-10-10r------------------------|

Verse:
g|-----------------------------------------------------------------------------|
d|-----------------------------------------------------------------------------|
a|-7-7-7-7-7-r-7-7-7-7-7-r-----------------------------------------------------|x2
e|--------------------------8-8-8-8-8-r-10-10-10-10-10r------------------------|

Chorus:
g|-------------------------------------------------------------------------------------|
d|-------------------------------------------------------------------------------------|x2
a|-7-7-7-7-7-7-7-7-7-7-7-7-7-7-7-7-----------------------------------------------------|
e|---------------------------------8-8-8-8-8-8-8-8-8-8-8-8-8-8-8-8---------------------|

Verse:
g|-----------------------------------------------------------------------------|
d|-----------------------------------------------------------------------------|
a|-7-7-7-7-7-r-7-7-7-7-7-r-----------------------------------------------------|x2
e|--------------------------8-8-8-8-8-r-10-10-10-10-10r------------------------|
[ Tab from: http://www.guitartabs.cc/tabs/s/silverstein/smile_in_your_sleep_btab.html ]
Chorus:
g|-------------------------------------------------------------------------------------|
d|-------------------------------------------------------------------------------------|x2
a|-7-7-7-7-7-7-7-7-7-7-7-7-7-7-7-7-----------------------------------------------------|
e|---------------------------------8-8-8-8-8-8-8-8-8-8-8-8-8-8-8-8---------------------|

Bridge:
g|-------------------------------------------------------------------------------------|
d|-------------------------------------------------------------------------------------|
a|-7-7-7-7-7-7-r-7-7-7-7-7-7-r---------------------------------------------------------|x5
e|-----------------------------8-8-8-8-8-8-r-10-10-10-7-7-7r---------------------------|

Verse:
(A little different)
g|-------------------------------------------------------------------------------------|
d|-------------------------------------------------------------------------------------|
a|-7~---------------7~-----------------------------------------------------------------|x2
e|-----------------------------------8~----------------10~-----------------------------|

Chorus:
g|-------------------------------------------------------------------------------------|
d|-------------------------------------------------------------------------------------|x2
a|-7-7-7-7-7-7-7-7-7-7-7-7-7-7-7-7-----------------------------------------------------|
e|---------------------------------8-8-8-8-8-8-8-8-8-8-8-8-8-8-8-8---------------------|

Outro:
g|-------------------------------------------------------------------------------------|
d|-------------------------------------------------------------------------------------|
a|-7-7-7-7-7-7-r-7-7-7-7-7-7-r---------------------------------------------------------|x1
e|-----------------------------8-8-8-8-8-8-r-10-10-10-7-7-7-7-7-7-12-------------------|


| r  pause or rest
| /  slide up
| \  slide down
| h  hammer-on
| p  pull-off
| ~  vibrato
| +  harmonic
| x  Mute note
===============================================================================
Comments