Silverstein - Smashed Into Pieces Chords & Tabs

 

Smashed Into Pieces Chords & Tabs

Silverstein Chords & Tabs

Version: 4 Type: Tab 0 ratings
1 star 2 stars 3 stars 4 stars 5 stars
comments

Smashed Into Pieces Tab

   
Band-Silverstein
Song-Smashed into pieces
Tabber-Kramerguitars1

Email-Crapanea@hotmail.com

Tuning-Drop D
============
   Key      |
P-pull off  | 
h-hammer on |    
x-scratch   |   
~-let ring  |
/-slide     |
*-palm mute |
============

This is all of guitar 2 for smashed into pieces, i put the lyrics on the bottom of the
tabs so you know the timing and to make it easier on you,    you dont have to play
Exactly like he plays it, make your own rythm in the chords, HAVE FUN MAN! This for all
you Silverstein fans and for the guitarists that want to learn songs PERFECT, which is
Exactly what my tab is, haha! 


 Intro Guitar 2 (0:00-0:10)
|-------------------------------------------------|
|-------------------------------------------------|
|-------------------------------------------------|
|-4~------0~----------------4~---------2----------|
|-4~-4-5--0~-5-4-4-5h4p-----4~-4-5-----2-(x10)----|
|-4~------0~----------------4~---------2----------|

 Verse (0:10-0:20)
|--------------------------------------------------------------------------|
|--------------------------------------------------------------------------|
|-----------------------------------------------18-16-14-16----------------|
|-0-0--0---11-9-7-9--4-4-4--9-7-6/7/6--4p0-0-0---x--x--x--x--4------2------|
|-0-0--0----x-x-x-x--4-4-4--x-x-x/x/x--4p0-0-0--16-14-12-14--4-(x5)-2-(x5)-|
|-0-0--0----9-7-5-7--4-4-4--7-5-4/5/4--4p0-0-0---------------4------2------|
    *(x5)              *(x5)               *(x5)
Never again,   I'll..throat!      with the Knife I pulled out...

 Verse continued... (0:20-0:31)           
|--------------------------------------------------------------------------|
|--------------------------------------------------------------------------|
|-----------------------------------------------18-16-14-16----------------|
|-0-0--0---11-9-7-9--4-4-4--9-7-6/7/6--4p0-0-0---x--x--x--x--4------2------|
|-0-0--0----x-x-x-x--4-4-4--x-x-x/x/x--4p0-0-0--16-14-12-14--4-(x5)-2-(x5)-|
|-0-0--0----9-7-5-7--4-4-4--7-5-4/5/4--4p0-0-0---------------4------2------|
    *(x5)              *(x5)               *(x5)
Maybe when,        you find..    that I'm dead, you'll realize...

 Chorus (0:31-1:41)
|----------------------------------------------|
|----------------------------------------------|
|-----------7-7-7777---------------------------|
|-4-4-4444--x-x-xxxx-----7-7-7777-----6-6-6666-|
|-4-4-4444--5-5-5555-----7-7-7777-----6-6-6666-|
|-4-4-4444---------------7-7-7777-----6-6-6666-|
 And if my..Lungs still..you'll be... me.......

 Chorus Continued... (0:41-0:52)
|-----------------------------------------------|
|-----------------------------------------------|
|-----------7-7-7777----------------------------|
|-4-4-4444--x-x-xxxx-----7-7-7777-----6-6-6666--|
|-4-4-4444--5-5-5555-----7-7-7777-----6-6-6666--|
|-4-4-4444---------------7-7-7777-----6-6-6666--|
  If I can  make myself..I'll give..  you took A...

 Verse (0:52-1:02)
|--------------------------------------------------------------------------|
|--------------------------------------------------------------------------|
|-----------------------------------------------18-16-14-16----------------|
|-0-0--0---11-9-7-9--4-4-4--9-7-6/7/6--4p0-0-0---x--x--x--x--4------2------|
|-0-0--0----x-x-x-x--4-4-4--x-x-x/x/x--4p0-0-0--16-14-12-14--4-(x5)-2-(x5)-|
|-0-0--0----9-7-5-7--4-4-4--7-5-4/5/4--4p0-0-0---------------4------2------|
    *(x5)              *(x5)               *(x5)
   NO!   I wont let it GO!             Douse myself in gasoline! 


 Verse Continued.... (1:02-1:12)
|--------------------------------------------------------------------------|
|--------------------------------------------------------------------------|
|-----------------------------------------------18-16-14-16----------------|
|-0-0--0---11-9-7-9--4-4-4--9-7-6/7/6--4p0-0-0---x--x--x--x--4------2------|
|-0-0--0----x-x-x-x--4-4-4--x-x-x/x/x--4p0-0-0--16-14-12-14--4-(x5)-2-(x5)-|
|-0-0--0----9-7-5-7--4-4-4--7-5-4/5/4--4p0-0-0---------------4------2------|
    *(x5)              *(x5)               *(x5)
Save me when        you come... into..  I'd rather die.....than have to...


 Chorus (1:12-1:22)
|----------------------------------------------|
|----------------------------------------------|
|-----------7-7-7777---------------------------|
|-4-4-4444--x-x-xxxx-----7-7-7777-----6-6-6666-|
|-4-4-4444--5-5-5555-----7-7-7777-----6-6-6666-|
|-4-4-4444---------------7-7-7777-----6-6-6666-|
 And if my..Lungs still..you'll be... me.......

 Chorus Continued... (1:22-1:33)
|-----------------------------------------------|
|-----------------------------------------------|
|-----------7-7-7777----------------------------|
|-4-4-4444--x-x-xxxx-----7-7-7777-----6-6-6666--|
|-4-4-4444--5-5-5555-----7-7-7777-----6-6-6666--|
|-4-4-4444---------------7-7-7777-----6-6-6666--|
  if I can  make myself..I'll give..  you took  

Riff (1:33-1:37)
|----------9-10-9------------|     During this riff your can play
|----7-9/10------10-9-7h9----|     Guitar 1 and 2 at the same time
|----------------------------|(x2) because all Guitar 2 does is ring 
|----------------------------|     two strings so while those D and A
|--0~~~~~~~~~~~~~~~~~~~~~----|     strings are ringing your can play
|--0~~~~~~~~~~~~~~~~~~~~~----|     part of the riff until guitar 2 
 A-way.......                      finishes up the riff.
                  
[ Tab from: http://www.guitartabs.cc/tabs/s/silverstein/smashed_into_pieces_tab_ver_4.html ]
 Riff(1:37-2:35)                           
|-----------------------------------------|-------------------------------|
|-----------------------------------------|-777-9-77-9/10--777-9-77-9/10--|
|---------------------6~------------------|-------------------------------|
|-4~~~~~~~---2~~--0~~-4~--4~~~~~~~~~-2~~--|-------------------------------|
|-4~~~~~~~---2~~--0~~-----4~~~~~~~~~-2~~--|-------------------------------|
|-4~~~~~~~---2~~--0~~-----4~~~~~~~~~-2~~--|-------------------------------|
you made me,swear       you made me,swear   ***   **       ***   **
                                             I.........           I        
 Riff Continued...
|------------------------------|-------------------------------------------|
|-----10--10h9-------9--9h10---|-777-9-77-9/10--777-9-77-9/10-----10--10h9-|
|-9999--99-------9999-99-------|------------------------------9999--99-----|
|------------------------------|-------------------------------------------|
|------------------------------|-------------------------------------------|
|------------------------------|-------------------------------------------|
  ****  **       **** **         ***   **       ***   **      ****  **
 Sleep...          Realize all these things that you took           FROM
 
Continued...
|--------------|
|-----9---9h10-|
|-9999-99------|
|--------------|
|--------------|
|--------------|
  **** **
      ME!!!


|-----------|-----------|----------------|
|-----------|-----------|----------------|
|-----------|-----------|----------------|
|-----------|-----------|-4~~~~~~~~--2~~-|
|-00000-0-0-|-00000-0-0-|-4~~~~~~~~--2~~-|
|-00000-0-0-|-00000-0-0-|-4~~~~~~~~--2~~-|
  Ahhhhh!!!!  Ahhhhh!!!! You made me,swear

|--------------|-----------------|---------------------|-----------------|
|--------------|-----------------|---------------------|-----------------|
|--------------|-----------------|---------------------|-----------------|
|--------------|-4~~~~~~~~~~-2~~-|---------------------|-4~~~~~~~~~~-2~~-|
|-00000-0-0-x2-|-4~~~~~~~~~~-2~~-|-00000-0-0-00000-0-0-|-4~~~~~~~~~~-2~~-|
|-00000-0-0----|-4~~~~~~~~~~-2~~-|-00000-0-0-00000-0-0-|-4~~~~~~~~~~-2~~-|
 Ahhhh to dust! You made me, swear suffocate  my mind!! You made me, Swear


|-----------------------|-------------------|
|-----------------------|-------------------|
|-----------------------|-------------------|
|-----------------------|-4~~~~~~~~~~~-2~~~-|
|-000000-0-0-00000-0-0--|-4~~~~~~~~~~~-2~~~-|
|-000000-0-0-00000-0-0--|-4~~~~~~~~~~~-2~~~-| Riff end...
  tear at me from inside! You made me, Swear


 Little Solo (2:36-2:46)
|-------------------------------|-------------------------------|
|-------------------------------|-------------------------------|
|-11------9999-99-9999-6666-6/7-|-11------9999-99-9999-6666-6/7-|
|--x-(x4)-xxxx-xx-xxxx-xxxx-x-x-|--x-(x4)-xxxx-xx-xxxx-xxxx-x-x-| 
|--9------7777-77-7777-4444-4/5-|--9------7777-77-7777-4444-4/5-|
|-------------------------------|-------------------------------|
                                 Smash  apart  what you creat-ed!!

 Outro (2:46-3:06)
|------------------------------------------------|-------------------------|
|------------------------------------------------|-------------------------|
|------------------------------------------------|-------------------------|
|-4~--2~-0~-2~-0h2-4~-2~----0~-2~------------0h2-|-444444-2~--0~-2~----0h2-|
|-4~--2~-0~-2~-0h2-4~-2~----0~-2~------------0h2-|-444444-2~--0~-2~----0h2-|
|-4~--2~-0~-2~-0h2-4~-2~----0~-2~------------0h2-|-444444-2~--0~-2~----0h2-|
 How can i ever stop you from crushing my soul?     It  was It was yours!

 Outro Continued
|-----------------------|
|-----------------------|
|-----------------------|
|--4~--2~-----0~-2~-xx--|
|--4~--2~-----0~-2~-xx--|
|--4~--2~-----0~-2~-xx--|
 Yours to begin with!


 Chorus again....(3:06-3:37)
|----------------------------------------------|
|----------------------------------------------|
|-----------7-7-7777---------------------------|
|-4-4-4444--x-x-xxxx-----7-7-7777-----6-6-6666-|
|-4-4-4444--5-5-5555-----7-7-7777-----6-6-6666-|
|-4-4-4444---------------7-7-7777-----6-6-6666-|
 And if my..Lungs still..you'll be... me.......

 Chorus Continued...                             Ending
|-----------------------------------------------|-------------|
|-----------------------------------------------|-------------|
|-----------7-7-7777----------------------------|-------------|
|-4-4-4444--x-x-xxxx-----7-7-7777-----6-6-6666--|-xx----------|
|-4-4-4444--5-5-5555-----7-7-7777-----6-6-6666--|-xx-0~~~~~~--|
|-4-4-4444---------------7-7-7777-----6-6-6666--|-xx-0~~~~~~--|
  if I can  make myself..I'll give..  you took A.... way....


Dang my back is killing me! haha its alright though its worth it, I want to get this
on ultimate so bad, haha can you tell? 

If you guys have any comments, Questions, or corrections email me, my email is at the
top of the tab.


 ======  000 ?    +       +   =======  @\\\\   0----    s    |---)  >   =\
|         0  ?    +       +  |         @    \  0        m    |      p   = \
|         0  ?    +       +  |         @     | 0     |==a==| i      i   =  \
 ======   0  ?    +       +  |======   @_ _ _/ -----    s    n---)  e   =  |
       |  0  ?     \      /  |         @\           |   h    t      c   =  |
       |  0  ?      \    /   |         @ \          |   e    o      e   =  |
 ======  000 ?=====  \--/    |=======  @  \_   -----    d    |---)  s   =  |
Comments