Silverstein - Smashed Into Pieces Chords & Tabs

 

Smashed Into Pieces Chords & Tabs

Silverstein Chords & Tabs

Version: 2 Type: Tab 0 ratings
1 star 2 stars 3 stars 4 stars 5 stars
comments

Smashed Into Pieces Tab

Song:Smashed into Pieces
Band:Silverstein
Tabbed by Hurleyboy_01 aka Paul Nieto
turning: Normal
*-palm mute
~ let ring

Guitar 1

Intro
e----------------------------------------------------------------|
B--10--(x8)--9-(x8)--10-(x8)--9-(x6)--10--(x3)--10-(x8)--9-(x7)--|
G--11-------11--------7-------7--------7--------11------11-------|
D----------------------------------------------------------------|
A----------------------------------------------------------------|
E----------------------------------------------------------------|

e--------------------------|
B--------------------------|
G--13-13-13-13-13-13-14-16-|
D--xx-xx-xx-xx-xx-xx-xx-xx-|
A--11-11-11-11-11-11-12-14-|
E--------------------------|

or
Guitar 2 plays this, but you can play this if u want.
e------------------------------------------------------|
B------------------------------------------------------|
G------------------------------------------------------|
D--4~--------------------4~----------------------------|
A--4~--4-5--0~--5-4-5-4--4~-------2-2-2-2-2-2-4-4-4-4--|
E--4~-------0~-----------4~-------2-2-2-2-2-2-4-4-4-4--|


Verse (play x2)
e-------------------------------------------------------------|
B-------------------------------------------------------------|
G-------------------------------------------------------------|
D---0--0-0-0-0-0-----------------4--4-4-4-4-4-----------------|
A---0--0-0-0-0-0--12-11--9-11-12-4--4-4-4-4-4--7-5-4-5-4------|
E---0--0-0-0-0-0-----------------4--4-4-4-4-4-----------------|
       *********                  *********

e---------------------------------------------------------|
B---------------------------------------------------------|
G---------------------------------------------------------|
D---0--0-0-0-0-0---------------4--4-4-4-4-4---------------|
A---0--0-0-0-0-0--12-11--9-11--4--4-4-4-4-4--7-5-4-5-4----|
E---0--0-0-0-0-0---------------4--4-4-4-4-4---------------|
        *********                 *********
[ Tab from: http://www.guitartabs.cc/tabs/s/silverstein/smashed_into_pieces_tab_ver_2.html ]
e--------------------------------------------------------------------|
B--------------------------------------------------------------------|
G--------------------------------------------------------------------|
D-------11-11-11-9-9-9-7-7-7-(x2)----------11-11-11-14-14-14---------|(x2)
A--9-9-9---------------------------12-12-12-------------------12-12--|
E--------------------------------------------------------------------|
  ************************************************************

Bridge
e-----------9-10-9----------(x7)---12-10-9-10-9-------------------|
B----7-9-10--------10-9-7-9---------------------12-10-9-10-9-7-9--|
D-----------------------------------------------------------------|
A-----------------------------------------------------------------|
E-----------------------------------------------------------------|

e-------------------------------------------------------------------------|
B---7-7--7-7-9-7-7-9h10-(x2)----------10-----10p9--------------9-----9h10-|
G----------------------------9-9--9-9----9-9----------9-9--9-9---9-9------|
D-------------------------------------------------------------------------|
A-------------------------------------------------------------------------|
E-------------------------------------------------------------------------|
   *********  **            *********    **           *******    ***


e--------------------------------------------|
B--------------------------------------------|
G--------------------------------------------|
D-0-0-0-0-0-0-0-0--0-0-0-0-0-0-0-0--4~--2~---|
A-0-0-0-0-0-0-0-0--0-0-0-0-0-0-0-0--4~--2~---|
E-0-0-0-0-0-0-0-0--0-0-0-0-0-0-0-0--4~--2~---|
**********************************

Guitar 2 plays little solo

Outro  (play twice)
e-------------------------------------------------------------------|
B-------------------------------------------------------------------|
G------6-6-4-4-2-2----4-4-2-2-1-1-----2-2-5-5-----------1-1-2-2-4-4-|
D--4-4-------------2-2------------4-4-----------2-2-2-2-------------|
A-------------------------------------------------------------------|
E-------------------------------------------------------------------|

play once then play outro twice
e-------------------|
B-------------------|
G-------------------|
D---4-4-4-4-4-4-2~--|
A---4-4-4-4-4-4-2~--|
E---4-4-4-4-4-4-2~--|
***************

Ending
e-------------|
B-------------|
G-------------|
D---2-2--0~---|
A---2-2--0~---|
E---2-2--0~---|

Thats all. Listen to the song 4 the order and timing. I will tab Guitar two's part 
because iam lazy. Please Rate!
Comments