Silverstein - Smashed Into Pieces Chords & Tabs

 

Smashed Into Pieces Chords & Tabs

Silverstein Chords & Tabs

Version: 1 Type: Tab 2 ratings
1 star 2 stars 3 stars 4 stars 5 stars
comments

Smashed Into Pieces Tab

   
SILVERSTEIN - SMASHED INTO PIECES
Key:
~     = let the note ring out
..    = palm mute
/     = slide up
     = slide down
h     = hammer-on
p     = pull-off

DROP D TUNING

GUITAR ONE\\\'S PARTS


0:00
INTRO:       
e|---------------------------------------------------------------|
B|--10--(x8)--9-(x8)--10-(x8)--9-(x6)--/10-(x3)--10-(x8)--9-(x7)-|
G|--11-------11--------7-------7---------7-------11------11------|
D|---------------------------------------------------------------|
A|---------------------------------------------------------------|
D|---------------------------------------------------------------|

cont.
e|--------------------------|
B|--------------------------|
G|--13-13-13-13-13-13-14-16-|
D|---x--x--x--x--x--x--x--x-|
A|--11-11-11-11-11-11-12-14-|
D|--------------------------|

0:10
VERSE:                                                   (x2)   
e|---------------------------------------------------------|
B|---------------------------------------------------------|
G|-----------------14-13-11-13----------------9-7-6/76-----|
D|---0--0-0-0-0-0---x--x--x--x--4--4-4-4-4-4--x-x-x-xx-----|
A|---0--0-0-0-0-0--12-11--9-11--4--4-4-4-4-4--7-5-4/54-----|
D|---0--0-0-0-0-0---------------4--4-4-4-4-4---------------|
P.M.    . . .   .                  . . .   .

cont.
e|---------------------------------------------------------|
B|---------------------------------------------------------|
G|-----------------14-13-11-13-----------------------------|
D|---0--0-0-0-0-0---x--x--x--x--4-4-4-4-4-4--2-2-2-2--2-2--|
A|---0--0-0-0-0-0--12-11--9-11--4-4-4-4-4-4--2-2-2-2--2-2--|
D|---0--0-0-0-0-0---------------4-4-4-4-4-4--2-2-2-2--2-2--|
P.M.    . . .   .                                     . .

0:31
CHORUS:
(not 100%)                                                 (x2)
e|------------------------------------------------------------|
B|------------------------------------------------------------|
G|---------------------(x2)--------------------------(x2)-----|
D|-------11-11-9-9-7-7-----------11-11-14-14-14---------------|
A|---9-9-------------------12-12----------------12-12---------|
D|------------------------------------------------------------|
P.M. . .  .  . . . . .      .  .  .  .  .  .  .  .  .

cont.
e|---------------------------------------------|
B|---------------------------(x4)--play-only---|
G|--------------------------------fourth-time--|
D|---------19-19-18-18-14-14------14-14-14-----|
A|---16-16-------------------------------------|
D|---------------------------------------------|
P.M.  .  .  .  .  .  .  .  .

0:52
VERSE

1:13
CHORUS

1:34
BRIDGE:                   (x7)
e|-----------9-10-9----------|--12-10-9-10-9-------------------|
B|----7-9-10--------10-9-7-9-|---------------12-10-9-10-9-7-9--|
G|---------------------------|---------------------------------|
D|---------------------------|---------------------------------|
A|---------------------------|---------------------------------|
D|---------------------------|---------------------------------|

1:49
NEXT PART:                                                        (x2)
e|----------------------(x2)-----------------------------------------|
B|---7-7-7-7-9-7-7-9h10-------------10-----10p9----------9-----9h10--|
G|--------------------------9-9-9-9----9-9-------9-9-9-9---9-9-------|
D|-------------------------------------------------------------------|
A|-------------------------------------------------------------------|
D|-------------------------------------------------------------------|
P.M. . . . .   . .          . . . .    . .       . . . .   . .

2:05
PART AFTER THAT:                                   (x4)
e|----------------------------------------------------|
B|----------------------------------------------------|
G|----------------------------------------------------|
D|---0-0-0-0-0-0-0-0--0-0-0-0-0-0-0-0-0-0--4~--2~-----|
A|---0-0-0-0-0-0-0-0--0-0-0-0-0-0-0-0-0-0--4~--2~-----|
D|---0-0-0-0-0-0-0-0--0-0-0-0-0-0-0-0-0-0--4~--2~-----|
P.M. . . . . . . . .  . . . . . . . . . .

2:36
LITTLE THINGY:
(only guitar 2)

2:46
OUTRO:                                                           (x2)
e|------------------------------------------------------------------|
B|------------------------------------------5-5---------------------|
G|------6-6-4-4-2-2-----4-4-2-2-1-1-----2-2-------------1-1-2-2-4-4-|
D|--4-4-------------2-2-------------4-4---------2-2-2-2-------------|
A|------------------------------------------------------------------|
D|------------------------------------------------------------------|

e|---------------------------------------------------------------|
B|---------------------------------------5-5---------------------|
G|-------------------4-4-2-2-1-1-----2-2-------------1-1-2-2-4-4-|
D|---4-4-4-4-4-4-2~--------------4-4---------2-2-2-2-------------|
A|---4-4-4-4-4-4-2~----------------------------------------------|
D|---4-4-4-4-4-4-2~----------------------------------------------|
P.M. . . . . . .

e|---------------------------------------------------------------|
B|------------------------------------------5-5------------------|
G|------6-6-4-4-2-2-----4-4-2-2-1-1-----2-2-------------1-1-2-4--|
D|--4-4-------------2-2-------------4-4---------2-2-2-2----------|
A|---------------------------------------------------------------|
D|---------------------------------------------------------------|

3:07
CHORUS
[ Tab from: http://www.guitartabs.cc/tabs/s/silverstein/smashed_into_pieces_tab.html ]
ENDING:
e|---------------|                                                   
B|---------------|                                                   
G|---------------|                                                   
D|----2-2--0~----|                                                   
A|----2-2--0~----|                                                   
D|----2-2--0~----| 
P.M.  . .      


GUITAR TWO\\\'S PARTS

0:00
INTRO:
e|--------------------------------------------------------------|
B|--------------------------------------------------------------|
G|------6-7-----7-6/76------6-7---------------------------------|
D|--4~--x-x--0~-x-x-x-x--4~-x-x--2-2-2-2-2-2-2-2-2-2-2-2--------|
A|--4~--4-5--0~-5-4/54--4~--4-5--2-2-2-2-2-2-2-2-2-2-2-2--------|
D|--4~-------0~----------4~------2-2-2-2-2-2-2-2-2-2-2-2--------|


0:10
VERSE:                                                      
e|----------------------------------------------------------|
B|----------------------------------------------------------|
G|-----------------11-9-7-9----------------9-7-6/76---------|
D|---0--0-0-0-0-0---x-x-x-x--4--4-4-4-4-4--x-x-x-xx---------|
A|---0--0-0-0-0-0---9-7-5-7--4--4-4-4-4-4--7-5-4/54---------|
D|---0--0-0-0-0-0------------4--4-4-4-4-4-------------------|
P.M.    . . .   .               . . .   .

cont.                                                    (x2)
e|----------------------------------------------------------|
B|----------------------------------------------------------|
G|-----------------18-16-14-16------------------------------|
D|---0--0-0-0-0-0---x--x--x--x--4-4-4-4-4-4--2-2-2-2--2-2---|
A|---0--0-0-0-0-0--16-14-12-14--4-4-4-4-4-4--2-2-2-2--2-2---|
D|---0--0-0-0-0-0---------------4-4-4-4-4-4--2-2-2-2--2-2---|
P.M.    . . .   .                                     . .


0:31
CHORUS:                                                      
e|--------------------------------------------|
B|--------------------------------------------|
G|----------7---------------------------------|
D|--4-(x12)-7-(x12)-7--------6-------2--------|
A|--4-------5-------7-(x12)--6-(x6)--2-(x6)---|
D|--4---------------7--------6-------2--------|

cont.
e|-----------------------------------------------|
B|-----------------------------------------------|
G|----------7------------------------------------|
D|--4-(x12)-7-(x12)-7--------6-------2------2-2--|
A|--4-------5-------7-(x12)--6-(x6)--2-(x4)-2-2--|
D|--4---------------7--------6-------2------2-2--|
P.M.                                        . .

0:52
VERSE

1:13
CHORUS

1:34
BRIDGE:        (x2)
e|----------------|
B|----------------|
G|----------------|
D|---0~--4~--2~---|
A|---0~--4~--2~---|
D|---0~--4~--2~---|


1:49
NEXT PART:                                                       (x2)
e|------------------------------------------------------------------|
B|------------------------------------------------------------------|
G|--------------------(x2)------------------------------------------|
D|-----------6-----6h7-------------7-----7h9---------9-----9h11-----|
A|---5-5-5-5---5-5---------9-9-9-9---9-9-----7-7-7-7---7-7----------|
D|------------------------------------------------------------------|  
P.M. . . . .   . .         . . . .   . .     . . . .   . .


2:05
PART AFTER THAT:                                   (x4)
e|----------------------------------------------------|
B|----------------------------------------------------|
G|----------------------------------------------------|
D|---0-0-0-0-0-0-0-0--0-0-0-0-0-0-0-0-0-0--4~--2~-----|
A|---0-0-0-0-0-0-0-0--0-0-0-0-0-0-0-0-0-0--4~--2~-----|
D|---0-0-0-0-0-0-0-0--0-0-0-0-0-0-0-0-0-0--4~--2~-----|
P.M. . . . . . . . .  . . . . . . . . . .


2:36
LITTLE THINGY:                                     (x2)
e|-----------------------------------------------------|
B|-----------------------------------------------------|
G|-11-11-11-11--9-9-9-9--9-9--9-9-9-9--6-6-6h7--6h7----|
D|--x--x--x--x--7-7-7-7--7-7--x-x-x-x--4-4-4-4--4-4----|
A|--9--9--9--9--9-9-9-9--9-9--7-7-7-7--5-5-5-5--5-5----|
D|-----------------------------------------------------|

2:46
OUTRO:                                                  (x2)
e|---------------------------------------------------------|
B|---------------------------------------------------------|
G|---------------------------------------------------------|
D|--4-4-4-4-4-4--2-2-2-2-2-2--0-0-0-0-0-0--2-2-2-2-2-2-----|
A|--4-4-4-4-4-4--2-2-2-2-2-2--0-0-0-0-0-0--2-2-2-2-2-2-----|
D|--4-4-4-4-4-4--2-2-2-2-2-2--0-0-0-0-0-0--2-2-2-2-2-2-----|

cont.
e|--------------------------------------------------|
B|--------------------------------------------------|
G|--------------------------------------------------|
D|---4-4-4-4-4-4--2~---0-0-0-0-0-0--2-2-2-2-2-2-----|
A|---4-4-4-4-4-4--2~---0-0-0-0-0-0--2-2-2-2-2-2-----|
D|---4-4-4-4-4-4--2~---0-0-0-0-0-0--2-2-2-2-2-2-----|
P.M. . . . . . .
e|---------------------------------------------------------|
B|---------------------------------------------------------|
G|---------------------------------------------------------|
D|--4-4-4-4-4-4--2-2-2-2-2-2--0-0-0-0-0-0--2-2-2-2-2-2-----|
A|--4-4-4-4-4-4--2-2-2-2-2-2--0-0-0-0-0-0--2-2-2-2-2-2-----|
D|--4-4-4-4-4-4--2-2-2-2-2-2--0-0-0-0-0-0--2-2-2-2-2-2-----|

3:07
CHORUS

ENDING:
e|---------------|                                                   
B|---------------|                                                   
G|---------------|                                                   
D|----2-2--0~----|                                                   
A|----2-2--0~----|                                                   
D|----2-2--0~----| 
P.M.  . .



Comments