Silverstein - Smashed Into Pieces Chords & Tabs

 

Smashed Into Pieces Chords & Tabs

Silverstein Chords & Tabs

Version: 1 Type: Bass Tab 0 ratings
1 star 2 stars 3 stars 4 stars 5 stars
comments

Smashed Into Pieces Bass Tab

   
-------------------------------------------------------------------------------
			     Silverstein - Smashed Into Pieces
-------------------------------------------------------------------------------

Tabber:roel y.

Tuning:drop d (d a d g)
===========================

G|--------------------------------------------------------------|
D|--------------------------------------------------------------|
A|--------------------------------------------------------------|
D|--4-4-4-4-4-4-4-4-4-4-4-4-4-4-4-0-0-0-0-0-0-0-0-0-0-0-0-0-0-0-|
cont.
G|-------------------------------------------------------|
D|-------------------------------------------------------|
A|-------------------------------------------------------|
D|--4-4-4-4-4-4-4-4-4-4-4-4-4-4-4--2-2-2-2-2-2-2-2-2-2-2-|


(strumming not shown)
G|------------------------------------------------------|
D|------------------------------------------------------|
A|------------------------------------------------------|
D|--0-0-0-0-0-0-0-0-0-0-0-0-0-0-4-4-4-4-4-4-4-4-4-4-4-4-|
cont.
G|--------------------------------------------------------------|
D|--------------------------------------------------------------|(x2)
A|--------------------------------------------------------------|
D|--0-0-0-0-0-0-0-0-0-0-0-0-0-0--4-4-4-4-4-4-4-2-2-2-2-2-2--2-2-|


G|-------------------------------------------------------------|
D|-------------------------------------------------------------|
A|--------------------------------5--5-5-5-5-5-5-5-5-5-5-5-5-5-|
D|--4--4-4-4-4-4-4-4-4-4-4-4-4-4-------------------------------|
cont.
G|-------------------------------------------------------------|
D|-------------------------------------------------------------|(x2)
A|-------------------------------------------------------------|
D|--7--7-7-7-7-7-7-7-7-7-7-7-7-6--6-6-6-6-6-6--2--2-2-2-2--2-2-|


[ Tab from: http://www.guitartabs.cc/tabs/s/silverstein/smashed_into_pieces_btab.html ]
G|------------------------------------------------------|
D|------------------------------------------------------|
A|------------------------------------------------------|
D|--0-0-0-0-0-0-0-0-0-0-0-0-0-0-4-4-4-4-4-4-4-4-4-4-4-4-|
cont.
G|--------------------------------------------------------------|
D|--------------------------------------------------------------|(x2)
A|--------------------------------------------------------------|
D|--0-0-0-0-0-0-0-0-0-0-0-0-0-0--4-4-4-4-4-4-4-2-2-2-2-2-2--2-2-|



G|-------------------------------------------------------------|
D|-------------------------------------------------------------|
A|--------------------------------5--5-5-5-5-5-5-5-5-5-5-5-5-5-|
D|--4--4-4-4-4-4-4-4-4-4-4-4-4-4-------------------------------|
cont.
G|-------------------------------------------------------------|
D|-------------------------------------------------------------|(x2)
A|-------------------------------------------------------------|
D|--7--7-7-7-7-7-7-7-7-7-7-7-7-6--6-6-6-6-6-6--2--2-2-2-2--2-2-|



(exact timing not shown)
G|--------------------------------------|
D|--------------------------------------|
A|------------------------5-------------|
D|--0--------4----2--------------4----2-|

u have to wait a few seconds cuz 1st and 2nd guitar are doing they're part and i don't
think the bass doesn't have anything to do.



G|-------------------------------------------------|
D|-------------------------------------------------|(x4)
A|-------------------------------------------------|
D|--0-0-0-0-0-0-0-0-0--0-0-0-0-0-0-0-0-0--4------2-|



then 2nd guitar does the solo part thingy then u after that u do this:
G|----------------------------------------------------------|
D|----------------------------------------------------------|(x4)
A|----------------------------------------------------------|
D|--4-4-4-4-4-4--2--2-2-2-2-2-2-2-2-0-0-0-0-0-0-2-2-2-2-0-2-|



G|-------------------------------------------------------------|
D|-------------------------------------------------------------|
A|--------------------------------5--5-5-5-5-5-5-5-5-5-5-5-5-5-|
D|--4--4-4-4-4-4-4-4-4-4-4-4-4-4-------------------------------|
cont.
G|-------------------------------------------------------------|
D|-------------------------------------------------------------|(x2)
A|-------------------------------------------------------------|
D|--7--7-7-7-7-7-7-7-7-7-7-7-7-6--6-6-6-6-6-6--2--2-2-2-2--2-2-|

G|-------|
D|-------|
A|-------|
D|--0----|
Comments