Silverstein - Smashed Into Peices Chords & Tabs

 

Smashed Into Peices Chords & Tabs

Silverstein Chords & Tabs

Version: 1 Type: Bass Tab 0 ratings
1 star 2 stars 3 stars 4 stars 5 stars
comments

Smashed Into Peices Bass Tab

   
                              Silverstein
                          Smashed Into Peices

Tabbed by: Ron Curtis
Tuning: D A D G

If you see a single star then my explanation for the star will be under that set of 
More than one star will be explained at the bottom of the page.

Intro 0:00
G|-------------------------------------|
D|-------------------------------------|
A|-------------------------------------|
D|-44444444-00000000-44444444-22222222-|

Verse 0:10(1st time) 0:21(2nd time)
G|-------------------------------------|
D|-------------------------------------|
A|-------------------------------------|
D|-00000000-44444444-00000000-44442222-| x2

Chorus 0:31(1st time) 0:42 (2nd time)
G|------------------------------------------|
D|------------------------------------------|
A|----------55555555------------------------|
D|-44444444----------77777777-6666-**(2626)-| x2

verse 0:52 (1st time) 1:02 (2nd time)
G|-------------------------------------|
D|-------------------------------------|
A|-------------------------------------|
D|-00000000-44444444-00000000-44442222-| x2

Chorus 1:13 (1st time) 1:23(2nd time)
G|-------------------------------------------------|
D|-------------------------------------------------|
A|----------55555555-------------------------------|
D|-44444444----------77777777-6666-**(2626)-***2/12| x2

Bridge 1:33
G|-------------------------------|
D|-------------------------------|
A|-------------------------------|
D|-0*12---4-----2-----0---4----2-|
*this note is 12 if you did the slide. First time only, 2nd time play 0
[ Tab from: http://www.guitartabs.cc/tabs/s/silverstein/smashed_into_peices_btab.html ]
*Cont. of Bridge 1:49
G|-----------------------------|
D|-----------------------------|
A|-----------------------------|
D|-0------0------4------2------| x2
*I'm pretty sure this part DOES NOT have a Bass, but it sounds good so hey, why not play 
So if you play it, play same rythmn as guitars.

More of Bridge 2:05 (1st) 2:13 (2nd) 2:20 (3rd) 2:28 (4th)
G|---------------------------------------|
D|---------------------------------------|(x4)
A|---------------------------------------|
D|-0000000-0-0-0000000-0-0-4------2------|

2:36
Break

2:46
G|-------|
D|-------|
A|-------|
D|-****2-|

No clue what this is called 2:47
G|----------------------|
D|----------------------|
A|----------------------|
D|-*4---2-----0---2-----| x4
*On the 3rd time, this note does the same rythmic pattern as bass drum

Chorus
G|------------------------------------------|
D|------------------------------------------|
A|----------55555555------------------------|
D|-44444444----------77777777-6666-**(2626)-| x2

Last note
G|---|
D|---|
A|---|
D|-0-|

**This is a part that I made up. It sounds pretty bad ass. If you don't like it, then 
play 6666, instead of 2626. But if you do, play it only the first time. 2nd time play 66666666

***On the 2nd time through. I made up another part that sounds hella cool. After the 
play "2/12" slide up to 12. It is the same note as "0" but an octive higher. It sounds
cool, which this note will be the first note on the bidge. Make sure that if you play
the slide, the slide gets to "12" the same time you would play the "0", so slide half
a count early

****not on the CD, but after he goes "Smash apart what you creat..." play "2" when he 
"...ed" It give the soft part forming into the hard part a bigger effect
Comments