Silverstein - Red Light Pledge Chords & Tabs

 

Red Light Pledge Chords & Tabs

Silverstein Chords & Tabs

Version: 1 Type: Tab 0 ratings
1 star 2 stars 3 stars 4 stars 5 stars
comments

Red Light Pledge Tab

   
SILVERSTEIN - RED LIGHT PLEDGE



by: John (xcheesevandalx@aol.com)

Key:
~     = let the note ring out
..    = palm mute
/     = slide up
\     = slide down
h     = hammer-on
p     = pull-off
x     = mute string(s)
v     = vibrato

STANDARD TUNING

GUITAR ONE'S PARTS:

INTRO/VERSE:
0:00  
e|----------------------------------------------------------------|
B|----------------------------------------------------------------|
G|----------------------------------------------------------------|
D|----9----10-9------9----10-9-------9----10-9----12-9----10-9----|(x6)
A|------10------10-----10------10------10------10------10------10-|
E|--0--------------0---------------8------------------------------|

0:39
e|---------------------------------------------------|
B|---------------------------------------------------|
G|---------------------------------------------------|
D|--9--9-10--9-12--9-10--9--9--9-10--9-12--9-10--9---|
A|-10-10-10-10-10-10-10-10-10-10-10-10-10-10-10-10---|___
E|--8--8--8--8--8--8--8--8--8--8--8--8--8--8--8--8---|   |
                                                         |
e|---------------------------------------------------|   |
B|---------------------------------------------------|   |
G|---------------------------------------------------|   |
D|--9--9-10--9-12--9-10--9--9--9-10--9-12--9-10--9---|---|---|
A|-10-10-10-10-10-10-10-10-10-10-10-10-10-10-10-10---|   |   | 
E|--8--8--8--8--8--8--8--8--8--8--8--8--8--8--8--8---|   |   |
                                                         |   |
e|----------------------------------|                    |   |
B|----------------------------------|--------------------|   V
G|----------------------------------|  (not sure on the strumming
D|--9--9-10--9-12-12-12-12-12-12-12-|   or number of times each chord 
A|-10-10-10-10-10-10-10-10-10-10-10-|   is played... hard to hear)
E|--8--8--8--8--8--8--8--8--8--8--8-|

0:45
VERSE:
e|-----------------------------------------------------------------|
B|-----------------7-7-7-7-7-7-------------------------------------|
G|-----------------x-x-x-x-x-x-5-5--5-5-5-5-5-5--5-5--7-7-7-7-7-7--|
D|--2-2-2-2-2-2-2--4-4-4-4-4-4-5-5--5-5-5-5-5-5--5-5--7-7-7-7-7-7--|(x2)
A|--2-2-2-2-2-2-2--------------3-3--3-3-3-3-3-3--3-3--5-5-5-5-5-5--|
E|--0-0-0-0-0-0-0--------------------------------------------------|
P.M.                           . .               . . 

0:57                                                               
e|-------------------------------------------------------------------|
B|-------------------------------------------------------------------|
G|-----------------------------------------5-5-5-5-5-5-5-7-7-7-7-7-7-|
D|---2-2-2-2-2-2-9---9--2-2-2-2-2-2-9---9--5-5-5-5-5-5-5-7-7-7-7-7-7-|
A|---2-2-2-2-2-2-7-7-7--2-2-2-2-2-2-7-7-7--3-3-3-3-3-3-3-5-5-5-5-5-5-|
E|---0-0-0-0-0-0---0----0-0-0-0-0-0---0------------------------------|
P.M. . . . . . .        . . . . . . 

e|-----------------------------------------------------------------|
B|-----------------------------------------------------------------|
G|-----------------------------5-5-5-5-5-5-5-5--7-7-7-7-7-7-7-7-7--|
D|---2-2-2-9---9--2-2-2-9---9--5-5-5-5-5-5-5-5--7-7-7-7-7-7-7-7-7--|
A|---2-2-2-7-7-7--2-2-2-7-7-7--3-3-3-3-3-3-3-3--5-5-5-5-5-5-5-5-5--|
E|---0-0-0---0----0-0-0---0----------------------------------------|
P.M. . . .        . . .

1:10
CHORUS:
e|-------------------------------------------------------------------|
B|-------------------------------------------------------------------|
G|-4-4-4-4-4-4-4-4--7-7-7-7-7-7-7-7--9-9-9-9-9-9-9-9--12-12-11-11-11-|
D|-4-4-4-4-4-4-4-4--x-x-x-x-x-x-x-x--x-x-x-x-x-x-x-x---x--x--x--x--x-|
A|-2-2-2-2-2-2-2-2--5-5-5-5-5-5-5-5--7-7-7-7-7-7-7-7--10-10--9--9--9-|
E|-------------------------------------------------------------------|

e|---------------------------------------------------------------|
B|---------------------------------------------------------------|
G|--4-4-4-4-4-4-4-4-4--7-7-7-7-7-7-7-7--5-5-5-5-5-5-5-5-5-5-5-5--|
D|--4-4-4-4-4-4-4-4-4--7-7-7-7-7-7-7-7--5-5-5-5-5-5-5-5-5-5-5-5--|
A|--2-2-2-2-2-2-2-2-2--5-5-5-5-5-5-5-5--3-3-3-3-3-3-3-3-3-3-3-3--|
E|---------------------------------------------------------------|

e|-------------------------------------------------------------------|
B|-------------------------------------------------------------------|
G|-4-4-4-4-4-4-4-4--7-7-7-7-7-7-7-7--9-9-9-9-9-9-9-9--12-12-11-11-11-|
D|-4-4-4-4-4-4-4-4--x-x-x-x-x-x-x-x--x-x-x-x-x-x-x-x---x--x--x--x--x-|
A|-2-2-2-2-2-2-2-2--5-5-5-5-5-5-5-5--7-7-7-7-7-7-7-7--10-10--9--9--9-|
E|-------------------------------------------------------------------|

e|------------------------------------------|
B|------------------------------------------|
G|--4-4-4-4-4-4-4-4-4--7-7-7-7-7-7-7-7--5~--|
D|--4-4-4-4-4-4-4-4-4--7-7-7-7-7-7-7-7--5~--|
A|--2-2-2-2-2-2-2-2-2--5-5-5-5-5-5-5-5--3~--|
E|------------------------------------------|

1:32 ("yooooouuuuuuuu...")
e|---------------------------------------------------|
B|---------------------------------------------------|
G|---------------------------------------------------|
D|--9--9-10--9-12--9-10--9--9--9-10--9-12--9-10--9---|
A|-10-10-10-10-10-10-10-10-10-10-10-10-10-10-10-10---|___
E|--8--8--8--8--8--8--8--8--8--8--8--8--8--8--8--8---|   |
                                                         |
e|---------------------------------------------------|   |
B|---------------------------------------------------|   |
G|---------------------------------------------------|   |
D|--9--9-10--9-12--9-10--9--9--9-10--9-12--9-10--9---|---|---|
A|-10-10-10-10-10-10-10-10-10-10-10-10-10-10-10-10---|   |   | 
E|--8--8--8--8--8--8--8--8--8--8--8--8--8--8--8--8---|   |   |
                                                         |   |
e|----------------------------------|                    |   |
B|----------------------------------|--------------------|   V
G|----------------------------------|  (not sure on the strumming
D|--9--9-10--9-12-12-12-12-12-12-12-|   or number of times each chord 
A|-10-10-10-10-10-10-10-10-10-10-10-|   is played... hard to hear)
E|--8--8--8--8--8--8--8--8--8--8--8-|

1:39
VERSE:
e|-----------------------------------------------------------------|
B|-----------------7-7-7-7-7-7-------------------------------------|
G|-----------------x-x-x-x-x-x-5-5--5-5-5-5-5-5--5-5--7-7-7-7-7-7--|
D|--2-2-2-2-2-2-2--4-4-4-4-4-4-5-5--5-5-5-5-5-5--5-5--7-7-7-7-7-7--|(x2)
A|--2-2-2-2-2-2-2--------------3-3--3-3-3-3-3-3--3-3--5-5-5-5-5-5--|
E|--0-0-0-0-0-0-0--------------------------------------------------|
P.M.                           . .               . . 

1:52                                                               
e|-------------------------------------------------------------------|
B|-------------------------------------------------------------------|
G|-----------------------------------------5-5-5-5-5-5-5-7-7-7-7-7-7-|
D|---2-2-2-2-2-2-9---9--2-2-2-2-2-2-9---9--5-5-5-5-5-5-5-7-7-7-7-7-7-|
A|---2-2-2-2-2-2-7-7-7--2-2-2-2-2-2-7-7-7--3-3-3-3-3-3-3-5-5-5-5-5-5-|
E|---0-0-0-0-0-0---0----0-0-0-0-0-0---0------------------------------|
P.M. . . . . . .        . . . . . . 

e|--------------------------------------------------------------------|
B|--------------------------------------------------------------------|
G|-----------------------------5-5-5-5-5-5-5-5--7-7-7-7-7-7-7-7-7-----|
D|---2-2-2-9---9--2-2-2-9---9--5-5-5-5-5-5-5-5--7-7-7-7-7-7-7-7-7--2~-|
A|---2-2-2-7-7-7--2-2-2-7-7-7--3-3-3-3-3-3-3-3--5-5-5-5-5-5-5-5-5--2~-|
E|---0-0-0---0----0-0-0---0----------------------------------------0~-|
P.M. . . .        . . .

2:27
INTERLUDE: (only guitar two plays this part, so i tabbed out the
             violin part instead)
e|--10v--10p9-------------9~--14h15-14-14h15-14-17v~---|
B|------------10-10----10------------------------------|
G|------------------11---------------------------------|
D|-----------------------------------------------------|
A|-----------------------------------------------------|
E|-----------------------------------------------------|

2:39
CHORUS 2:
e|-------------------------------|
B|-------------------------------|
G|-------------------------------|
D|----5-5-5-5-5-5-5-5-5-5-5-5----|
A|----5-5-5-5-5-5-5-5-5-5-5-5----|
E|----3-3-3-3-3-3-3-3-3-3-3-3----|
P.M.  . . . . . . .          
                                                                   (x2)
e|--------------------------------------------------------------------|
B|--------------------------------------------------------------------|
G|--4-4-4-4-4-4-4-4---------------------------------------------------|
D|--4-4-4-4-4-4-4-4--7-7-7-7-7-7-7-7--5-5-5-5-5-5-5-5-5-5-5-5-5-5-5-5-|
A|--2-2-2-2-2-2-2-2--7-7-7-7-7-7-7-7--5-5-5-5-5-5-5-5-5-5-5-5-5-5-5-5-|
E|-------------------5-5-5-5-5-5-5-5--3-3-3-3-3-3-3-3-3-3-3-3-3-3-3-3-|
P.M.                                                              . .
                                                                   (x2)
e|--------------------------------------------------------------------|
B|--------------------------------------------------------------------|
G|--4-4-4-4-7-7-7-7----------7-7-7-7----------------------------------|
D|--4-4-4-4-x-x-x-x--7-7-7-7-x-x-x-x--5-5-5-5-5-5-5-5-5-5-5-5-5-5-5-5-|
A|--2-2-2-2-5-5-5-5--7-7-7-7-5-5-5-5--5-5-5-5-5-5-5-5-5-5-5-5-5-5-5-5-|
E|-------------------5-5-5-5----------3-3-3-3-3-3-3-3-3-3-3-3-3-3-3-3-|

3:13
OUTRO
e|--------------------------------|
B|--0-2-3-2-0---0--0-2-3-2-0---0--|
G|------------2--------------2----|(x4)
D|--------------------------------|
A|--------------------------------|
E|--------------------------------|
[ Tab from: http://www.guitartabs.cc/tabs/s/silverstein/red_light_pledge_tab.html ]
e|--------------------------------|
B|--3-5-7-5-3---3--3-5-7-5-3---3--|
G|------------6--------------6----|(x3)
D|--------------------------------|
A|--------------------------------|
E|--------------------------------|

e|------|
B|------|
G|--4~--|
D|------|END
A|------|
E|------|


GUITAR TWO'S PARTS:

INTRO/VERSE:
0:13   (guitar two doesn't come in until the drums play)
e|----------------------------------------------------------------|
B|----(strumming not defined cuz tabbing octaves is aggravating)--|
G|---9>-11>-12>--5>-7>--9>-11>-12>-14>-12>-11>--------------------|
D|---x---x---x---x--x---x---x---x---x---x---x---------------------|
A|---7>--9>-10>--3>-5>--7>--9>-10>-12>-10>--9>--------------------|
E|----------------------------------------------------------------|

e|----------------------------------------------------------------|
B|----------------------------------------------------------------|
G|---9>-11>-12>--5>-7>--9>-11>-12>-14>-12-12-12-12-12-12-12-12-12-|
D|---x---x---x---x--x---x---x---x---x---x--x--x--x--x--x--x--x--x-|
A|---7>--9>-10>--3>-5>--7>--9>-10>-12>-10-10-10-10-10-10-10-10-10-|
E|----------------------------------------------------------------|

0:45
VERSE:
e|-----------------------------------------------------------------|
B|-----------------------------------------------------------------|
G|--9-9-9-9-9-9-9--7-7-7-9-9-9-5-5--5-5-5-5-5-5--5-5--7-7-7-7-7-7--|
D|--9-9-9-9-9-9-9--7-7-7-9-9-9-5-5--5-5-5-5-5-5--5-5--7-7-7-7-7-7--|(x2)
A|--7-7-7-7-7-7-7--5-5-5-7-7-7-3-3--3-3-3-3-3-3--3-3--5-5-5-5-5-5--|
E|-----------------------------------------------------------------|
P.M.                           . .               . . 

0:57                                                               
e|-------------------------------------------------------------------|
B|-------------------------------------------------------------------|
G|-----------------------------------------5-5-5-5-5-5-5-7-7-7-7-7-7-|
D|---2-2-2-2-2-2-9---9--2-2-2-2-2-2-9---9--5-5-5-5-5-5-5-7-7-7-7-7-7-|
A|---2-2-2-2-2-2-7-7-7--2-2-2-2-2-2-7-7-7--3-3-3-3-3-3-3-5-5-5-5-5-5-|
E|---0-0-0-0-0-0---0----0-0-0-0-0-0---0------------------------------|
P.M. . . . . . .        . . . . . .              . . . .

e|-----------------------------------------------------------------|
B|-----------------------------------------------------------------|
G|-----------------------------5-5-5-5-5-5-5-5--7-7-7-7-7-7-7-7-7--|
D|---2-2-2-9---9--2-2-2-9---9--5-5-5-5-5-5-5-5--7-7-7-7-7-7-7-7-7--|
A|---2-2-2-7-7-7--2-2-2-7-7-7--3-3-3-3-3-3-3-3--5-5-5-5-5-5-5-5-5--|
E|---0-0-0---0----0-0-0---0----------------------------------------|
P.M. . . .        . . .

1:10
CHORUS:
e|---------------------------------------------------------------|
B|---------------------------------------------------------------|
G|--4-4-4-4-4-4-4-4-4--7-7-7-7-7-7-7-7--9-9-9-9-9-9-9-9-9-9-9-9--|
D|--4-4-4-4-4-4-4-4-4--7-7-7-7-7-7-7-7--9-9-9-9-9-9-9-9-9-9-9-9--|
A|--2-2-2-2-2-2-2-2-2--5-5-5-5-5-5-5-5--7-7-7-7-7-7-7-7-7-7-7-7--|
E|---------------------------------------------------------------|

e|---------------------------------------------------------------|
B|---------------------------------------------------------------|
G|--4-4-4-4-4-4-4-4-4--7-7-7-7-7-7-7-7--5-5-5-5-5-5-5-5-5-5-5-5--|
D|--4-4-4-4-4-4-4-4-4--7-7-7-7-7-7-7-7--5-5-5-5-5-5-5-5-5-5-5-5--|
A|--2-2-2-2-2-2-2-2-2--5-5-5-5-5-5-5-5--3-3-3-3-3-3-3-3-3-3-3-3--|
E|---------------------------------------------------------------|

e|---------------------------------------------------------------|
B|---------------------------------------------------------------|
G|--4-4-4-4-4-4-4-4-4--7-7-7-7-7-7-7-7--9-9-9-9-9-9-9-9-9-9-9-9--|
D|--4-4-4-4-4-4-4-4-4--7-7-7-7-7-7-7-7--9-9-9-9-9-9-9-9-9-9-9-9--|
A|--2-2-2-2-2-2-2-2-2--5-5-5-5-5-5-5-5--7-7-7-7-7-7-7-7-7-7-7-7--|
E|---------------------------------------------------------------|

e|------------------------------------------|
B|------------------------------------------|
G|--4-4-4-4-4-4-4-4-4--7-7-7-7-7-7-7-7--5~--|
D|--4-4-4-4-4-4-4-4-4--7-7-7-7-7-7-7-7--5~--|
A|--2-2-2-2-2-2-2-2-2--5-5-5-5-5-5-5-5--3~--|
E|------------------------------------------|

1:32 ("yooooouuuuuuuu...") (guitar one only)

1:39
VERSE:
e|-----------------------------------------------------------------|
B|-----------------------------------------------------------------|
G|--9-9-9-9-9-9-9--7-7-7-9-9-9-5-5--5-5-5-5-5-5--5-5--7-7-7-7-7-7--|
D|--9-9-9-9-9-9-9--7-7-7-9-9-9-5-5--5-5-5-5-5-5--5-5--7-7-7-7-7-7--|(x2)
A|--7-7-7-7-7-7-7--5-5-5-7-7-7-3-3--3-3-3-3-3-3--3-3--5-5-5-5-5-5--|
E|-----------------------------------------------------------------|
P.M.                           . .               . . 

0:57                                                               
e|-------------------------------------------------------------------|
B|-------------------------------------------------------------------|
G|-----------------------------------------5-5-5-5-5-5-5-7-7-7-7-7-7-|
D|---2-2-2-2-2-2-9---9--2-2-2-2-2-2-9---9--5-5-5-5-5-5-5-7-7-7-7-7-7-|
A|---2-2-2-2-2-2-7-7-7--2-2-2-2-2-2-7-7-7--3-3-3-3-3-3-3-5-5-5-5-5-5-|
E|---0-0-0-0-0-0---0----0-0-0-0-0-0---0------------------------------|
P.M. . . . . . .        . . . . . .                     

e|-------------------------------------------------------------------|
B|-------------------------------------------------------------------|
G|-----------------------------5-5-5-5-5-5-5-5--7-7-7-7-7-7-7-7-7--2-|
D|---2-2-2-9---9--2-2-2-9---9--5-5-5-5-5-5-5-5--7-7-7-7-7-7-7-7-7--2-|
A|---2-2-2-7-7-7--2-2-2-7-7-7--3-3-3-3-3-3-3-3--5-5-5-5-5-5-5-5-5--0-|
E|---0-0-0---0----0-0-0---0------------------------------------------|
P.M. . . .        . . .

2:05
INTERLUDE:
e|----------------------------------------------------------------|
B|----------------------------------------------------------------|
G|----------------------------------------------------------------|
D|----9----10-9------9----10-9------9----10-9------9----10-9------|
A|------10------10-----10------10-----10------10-----10------10---|
E|--0--------------0--------------0--------------0----------------|

e|----------------------------------------------------|
B|--------3-----------3------------3-----------3------|
G|----0-----0-----0-----0------2-----2-----2-----2----|
D|------4-----4-----4-----4------4-----4-----4-----4--|
A|--2-----------2------------0-----------0------------|
E|----------------------------------------------------|

e|--------2-----------2-----------2-----------2-------|
B|----3-----3-----3-----3-----3-----3-----3-----3-----|
G|------0-----0-----0-----0-----0-----0-----0-----0---|
D|----------------------------------------------------|
A|----------------------------------------------------|
E|--3-----------3-----------3-----------3-------------|

e|----------------------------------------------------|
B|--------3-----------3------------3-----------3------|
G|----0-----0-----0-----0------2-----2-----2-----2----|
D|------4-----4-----4-----4------4-----4-----4-----4--|
A|--2-----------2------------0-----------0------------|
E|----------------------------------------------------|

e|--------2-----------2-----------2-----------5-2h3p2----|
B|----3-----3-----3-----3-----3-----3-----3-----------3--|
G|------0-----0-----0-----0-----0-----0-----0------------|
D|-------------------------------------------------------|
A|-------------------------------------------------------|
E|--3-----------3-----------3-----------3----------------|

2:43
CHORUS 2:                                                          (x2)
e|--------------------------------------------------------------------|
B|--------------------------------------------------------------------|
G|--4-4-4-4-4-4-4-4---------------------------------------------------|
D|--4-4-4-4-4-4-4-4--7-7-7-7-7-7-7-7--5-5-5-5-5-5-5-5-5-5-5-5-5-5-5-5-|
A|--2-2-2-2-2-2-2-2--7-7-7-7-7-7-7-7--5-5-5-5-5-5-5-5-5-5-5-5-5-5-5-5-|
E|-------------------5-5-5-5-5-5-5-5--3-3-3-3-3-3-3-3-3-3-3-3-3-3-3-3-|
P.M.                                                              . .
                                                                    (x2)
e|---------------------------------------------------------------------|
B|---------------------------------------------------------------------|
G|-4-4-4-4-14-14-14---------14-14-14---------14-14-14-12-12-12-11-11-11|
D|-4-4-4-4--x--x--x-7-7-7-7--x--x--x-5-5-5-5--x--x--x--x--x--x--x--x--x|
A|-2-2-2-2-12-12-12-7-7-7-7-12-12-12-5-5-5-5-12-12-12-10-10-10--9--9--9|
E|------------------5-5-5-5----------3-3-3-3---------------------------|

                                                          
3:13
OUTRO:
e|---------------------------------------------------------|
B|---------------------------------------------------------|
G|--4-4-4-4-4x---------------------------------------------|
D|--4-4-4-4-4x--7-7-7-7-7x--5-5-5-5-5-5-5-5-5-5-5-5--4--5--|(x2)
A|--2-2-2-2-2x--7-7-7-7-7x--5-5-5-5-5-5-5-5-5-5-5-5--4--5--|
E|--------------5-5-5-5-5x--3-3-3-3-3-3-3-3-3-3-3-3--2--3--|

e|-------------------------------------------------------------------|
B|-------------------------------------------------------------------|
G|--4-4-4-4-4-4-4-4--------------------------------------------------|
D|--4-4-4-4-4-4-4-4--7-7-7-7-7-7-7-7--5-5-5-5-5-5-5-5-5-5-5-5--4--5--|
A|--2-2-2-2-2-2-2-2--7-7-7-7-7-7-7-7--5-5-5-5-5-5-5-5-5-5-5-5--4--5--|
E|-------------------5-5-5-5-5-5-5-5--3-3-3-3-3-3-3-3-3-3-3-3--2--3--|

e|----------------------------------------|
B|----------------------------------------|
G|--4-4-4-4-4-4-4-4-----------------------|
D|--4-4-4-4-4-4-4-4--7-7-7-7-7-7-7-7--5~--|END
A|--2-2-2-2-2-2-2-2--7-7-7-7-7-7-7-7--5~--|
E|-------------------5-5-5-5-5-5-5-5--3~--|

RATE AND COMMENT PLEASE!

any tab requests just email me at xcheesevandalx@aol.com
*Submited by Stribal*

Downloaded from www.taborama.com

================================================================
Comments