Silverstein - November Chords & Tabs

 

November Chords & Tabs

Silverstein Chords & Tabs

Version: 1 Type: Tab

November Tab

Tabbed by: blink182_4_life
Email: arbiter1023@sbcglobal.net
Song: November
Artist: Silverstein
Album: When broken is easily fixed
Tuning: Standard tuning
[ Tab from: http://www.guitartabs.cc/tabs/s/silverstein/november_tab.html ]
e|---------------------------------------------------------------------------|
B|---------------------------------------------------------------------------|
G|---------------------------------------------------------------------------|
D|---2-2-2-2-2---2-2-2-2-2---2-2-2-2-2---2-2-2-2-2-2-2-2-2-2-2-2-2-2-2-2-2-2-|
A|---2-2-2-2-2---2-2-2-2-2---2-2-2-2-2---2-2-2-2-2-2-2-2-2-2-2-2-2-2-2-2-2-2-|
E|---2-2-2-2-2---2-2-2-2-2---2-2-2-2-2---2-2-2-2-2-2-2-2-2-2-2-2-2-2-2-2-2-2-|

e|--------------------------------------------------------------------------|
B|----3/5-5-5-5-5-5-5-5-7-7-7-7-7-7-----------------------------------------|
G|----------------------4-4-4-4-4-4-----------------------------------------|
D|-2------------------------------------------------------------------------|
A|-2------------------------------------------------------------------------|
E|-2------------------------------------------------------------------------|

I belive this is the intro.please leave comments and ratings.i think this is how it 
if it isn't right then tell me and don't be rude about it