Silverstein - My Heroine Chords & Tabs

 

My Heroine Chords & Tabs

Silverstein Chords & Tabs

Version: 1 Type: Bass Tab

My Heroine Bass Tab

Silverstein
My Heroine


Tuning: Standard


(0:25)Intro 
G|--------------------------------------------|
D|--------------------------------------------|
A|-5h3~--5~--7~--5~--3~--5~--77777777-55555555|
E|--------------------------------------------|x1

(0:34)Verse 
G|--------------------------------------------|
D|--------------------------------------------|
A|-7-7-777-3-3-333-5-5-555-10-9-12-9-10-------|
E|--------------------------------------------|x1

G|--------------------------------------------|
D|--------------------------------------------|
A|-7-7-777-3-3-333-5-5-555-10-9-7-10-9-7------|
E|--------------------------------------------|x1

(0:50)Chorus 
G|--------------------------------------------|
D|--------------------------------------------|
A|-3-33333333-5-55555555-7-7777777777777777---|
E|--------------------------------------------|x1

G|--------------------------------------------|
D|----------------------------------5-55555555|
A|-3-33333333-5-55555555-7-77777777-----------|
E|--------------------------------------------|x1
[ Tab from: http://www.guitartabs.cc/tabs/s/silverstein/my_heroine_btab.html ]
G|--------------------------------------------|
D|--------------------------------------------|
A|-3-33333333-5-55555555-7-7777777777777777---|
E|--------------------------------------------|x1

G|--------------------------------------------|
D|--------------------------------------------|
A|-3-3333333333333333-5-5555555555555555------|
E|--------------------------------------------|x1

(1:15)Verse 
(1:27)Chorus 

(1:52)Bridge 
G|------------------------------------------------|
D|-5-55-5-55-5-9-99-9-9-99-9~-7~-5-55-5-55-5-55-5-|
A|------------------------------------------------|
E|------------------------------------------------|x1

G|------------------------------------------------|
D|-5-55-5-55-5-9-99-9-9-99-9~-7~-5~---------------|
A|------------------------------------------------|
E|------------------------------------------------|x1

(12 seconds later) 
G|-----------------------------|
D|-----------------------------|
A|-3~--5~--7~--5~--------------|
E|-----------------------------|x3

G|-----------------------------|
D|-----------------------------|
A|-3~--5~--77777777-55555555---|
E|-----------------------------|x1

(2:52)Chorus

(3:20)Ending
G|---------------------------------------------|
D|---------------------------------------------|
A|-7-7-777-3-3-333-5-5-555-10-9-12-9-10-7------|
E|---------------------------------------------|x1