Silverstein - Giving Up Chords & Tabs

 

Giving Up Chords & Tabs

Silverstein Chords & Tabs

Version: 6 Type: Tab 0 ratings
1 star 2 stars 3 stars 4 stars 5 stars
comments

Giving Up Tab

   
im pretty sure this is right im only thirteen so give me some props
G. 1			
e|-------0-----0--------0-----0---------3-----3---------3-----3--|
B|-----1---1----1-----1---1-----1-----1---1-----1-----1---1------|
G|---0-------0------0-------0-------2-------2-------2-------2----|
D|-3--------------3----------------------------------------------|
A|--------------------------------0---------------0--------------|
E|---------------------------------------------------------------|
Cont.                                                            |
e|-------0-----0--------0-----0---------3-----3---------3-----3--|-3-|
B|-----1---1----1-----1---1-----1-----1---1-----1-----1---1------|-1-|
G|---0-------0------0-------0-------2-------2-------2-------2----|-2-|
D|-3--------------3----------------------------------------------|---|
A|--------------------------------0---------------0--------------|-0-|
E|---------------------------------------------------------------|--|
                                                                 |
G. 2                                                          x 4
e|----12~--10~--7/8~------------12~--15~--15-13-10-12~-----------|
B|---------------------------------------------------------------|
G|---------------------------------------------------------------|
D|---------------------------------------------------------------|
A|---------------------------------------------------------------|
E|---------------------------------------------------------------|


G. 1			
e|---------------------------------------------------------------------------|
B|---------------------------------------------------------------------------|
G|---------------------------------------------------------------------------|
D|-101010101010101010101010--------------101010101010101010101010------------|
A|--8-8-8-8-8-8-8-8-8-8-8-8---------------8-8-8-8-8-8-8-8-8-8-8-8------------|
E|---------------------------------------------------------------------------|
Cont.                                                                        |
e|---------------------------------------------------------------------------|
B|---------------------------------------------------------------------------|
G|---------------------------------------------------------------------------|
D|-777777777777--------------------------777777777777------------------------|
A|-555555555555--------------------------555555555555------------------------|
E|---------------------------------------------------------------------------|
                                                                             | x 2
G. 2                                                                     |
e|-8-0-0-15-0-0-13-0-0-12-0-0-10-0-8-0---8-0-0-15-0-0-13-0-0-12-0-0-10-0-8-0-|
B|---------------------------------------------------------------------------|
G|---------------------------------------------------------------------------|
D|---------------------------------------------------------------------------|
A|---------------------------------------------------------------------------|
E|---------------------------------------------------------------------------|
Cont.                                                                        |
e|-8-0-0-15-0-0-13-0-0-12-0-0-10-0-8-0---8-0-0-15-0-0-13-0-0-12-0-0-10-0-8-0-|
B|---------------------------------------------------------------------------|
G|---------------------------------------------------------------------------|
D|---------------------------------------------------------------------------|
A|---------------------------------------------------------------------------|
E|---------------------------------------------------------------------------|


G. 1			
e|--------------------------------------------------------|
B|--------------------------------------------------------|
G|--------------------------------------------------------|
D|-3333333-5555555-77777777777777777----------------------|
A|-3333333-5555555-77777777777777777----------------------|
E|-1111111-3333333-55555555555555555----------------------|
                                                          |
G. 2                                                  | x 2
e|-----------------8-0-0-15-0-0-13-0-0-12-0-0-10-0-8-0(x2)|
B|--------------------------------------------------------|
G|--------------------------------------------------------|
D|-3333333-6666666----------------------------------------|
A|-3333333-6666666----------------------------------------|
E|-1111111-3333333----------------------------------------|



G. 1			
e|--------------------------------------------------------|
B|--------------------------------------------------------|
G|--------1212-1212121212---------------------------------|
D|-101010-1010-1010101010-10101010101010-555--------------|
A|--8-8-8--8-8--7-7-7-7-7-10101010101010-555--------------|
E|-------------------------8-8-8-8-8-8-8-333--------------|
                                                          |
G. 2                                                  | x 4
e|--------------------------------------------------------|
B|--------------------------------------------------------|
G|--------1212-1212121212---------------------------------|
D|-101010-1010-1010101010-10101010101010-555--------------|
A|--8-8-8--8-8--7-7-7-7-7-10101010101010-555--------------|
E|-------------------------8-8-8-8-8-8-8-333--------------|


[ Tab from: http://www.guitartabs.cc/tabs/s/silverstein/giving_up_tab_ver_6.html ]
G. 1			
e|---------------------------------------------------------------------------|
B|---------------------------------------------------------------------------|
G|---------------------------------------------------------------------------|
D|-101010101010101010101010--------------101010101010101010101010------------|
A|--8-8-8-8-8-8-8-8-8-8-8-8---------------8-8-8-8-8-8-8-8-8-8-8-8------------|
E|---------------------------------------------------------------------------|
Cont.                                                                        |
e|---------------------------------------------------------------------------|
B|---------------------------------------------------------------------------|
G|---------------------------------------------------------------------------|
D|-777777777777--------------------------777777777777------------------------|
A|-555555555555--------------------------555555555555------------------------|
E|---------------------------------------------------------------------------|
                                                                             | x 2
G. 2                                                                     |
e|-8-0-0-15-0-0-13-0-0-12-0-0-10-0-8-0---8-0-0-15-0-0-13-0-0-12-0-0-10-0-8-0-|
B|---------------------------------------------------------------------------|
G|---------------------------------------------------------------------------|
D|---------------------------------------------------------------------------|
A|---------------------------------------------------------------------------|
E|---------------------------------------------------------------------------|
Cont.                                                                        |
e|-8-0-0-15-0-0-13-0-0-12-0-0-10-0-8-0---8-0-0-15-0-0-13-0-0-12-0-0-10-0-8-0-|
B|---------------------------------------------------------------------------|
G|---------------------------------------------------------------------------|
D|---------------------------------------------------------------------------|
A|---------------------------------------------------------------------------|
E|---------------------------------------------------------------------------|




G. 1			
e|-----------------------------------------------------------------|
B|-----------------------------------------------------------------|
G|-----------------------------------------------------------------|
D|-333-3--555-5--77777777777777777-333-3--555-5--77777777777777777-|
A|-333-3--555-5--77777777777777777-333-3--555-5--77777777777777777-|
E|-111-1--333-3--55555555555555555-111-1--333-3--55555555555555555-|
   ...    ...                      ...    ...                      |
G.2                                                           |
e|-----------------------------------------------------------------|
B|-----------------------------------------------------------------|
G|-----------------------------------------------------------------|
D|-333-3--555-5-101010-999-777-999-333-3--555-5--77777777777777777-|
A|-333-3--555-5--------------------333-3--555-5--77777777777777777-|
E|-111-1--333-3--------------------111-1--333-3--55555555555555555-|
   ...    ...                      ...    ...



G. 1			
e|--------------------------------------------------------|
B|--------------------------------------------------------|
G|--------1212-1212121212---------------------------------|
D|-101010-1010-1010101010-10101010101010-555--------------|
A|--8-8-8--8-8--7-7-7-7-7-10101010101010-555--------------|
E|-------------------------8-8-8-8-8-8-8-333--------------|
                                                          |
G. 2                                                  | x 3
e|--------------------------------------------------------|
B|--------------------------------------------------------|
G|--------1212-1212121212---------------------------------|
D|-101010-1010-1010101010-10101010101010-555--------------|
A|--8-8-8--8-8--7-7-7-7-7-10101010101010-555--------------|
E|-------------------------8-8-8-8-8-8-8-333--------------|


G. 1
e|-------------------------------|
B|-------------------------------|
G|--------1212-1212121212--------|
D|-101010-1010-1010101010--3~----|
A|--8-8-8--8-8--7-7-7-7-7--3~----|
E|-------------------------1~----|
                                 |
G. 2                          x 1
e|-------------------------------|
B|-------------------------------|
G|--------1212-1212121212--------|
D|-101010-1010-1010101010--3~----|
A|--8-8-8--8-8--7-7-7-7-7--3~----|
E|-------------------------1~----|




G. 1			
e|-------0-----0--------0-----0---------3-----3---------3-----3--|
B|-----1---1----1-----1---1-----1-----1---1-----1-----1---1------|
G|---0-------0------0-------0-------2-------2-------2-------2----|
D|-3--------------3----------------------------------------------|
A|--------------------------------0---------------0--------------|
E|---------------------------------------------------------------|
Cont.                                                            |
e|-------0-----0--------0-----0---------3-----3---------3-----3--|
B|-----1---1----1-----1---1-----1-----1---1-----1-----1---1------|
G|---0-------0------0-------0-------2-------2-------2-------2----|
D|-3--------------3----------------------------------------------|
A|--------------------------------0---------------0--------------|
E|---------------------------------------------------------------|
                                                                 |
G. 2                                                         | x 4
e|----12~--10~--7/8~------------12~--15~--15-13-10-12~-----------|
B|---------------------------------------------------------------|
G|---------------------------------------------------------------|
D|---------------------------------------------------------------|
A|---------------------------------------------------------------|
E|---------------------------------------------------------------|
                                                                 |
 acoustic guitar                                       
e|---------------------------------------------------------------|
B|---------------------------------------------------------------|
G|-121212121212121212121212121212121212121212121212121212121212--|
D|-101010101010101010101010101010101010101010101010101010101010--|
A|--8-8-8-8-8-8-8-8-8-8-8-8-8-8-8-8-8-8-8-8-8-8-8-8-8-8-8-8-8-8--|
E|---------------------------------------------------------------|



G. 1			
e|------------|
B|------------|
G|------------|
D|-3333-3333--|
A|-3333-3333--|
E|-1111-1111--|
   ....       |
G. 2      | x 1
e|------------|
B|------------|
G|------------|
D|-3333-3333--|
A|-3333-3333--|
E|-1111-1111--|
   ....



G. 1			
e|--------------------------------------------------------|
B|--------------------------------------------------------|
G|--------------------------------------------------------|
D|-101010101010101010101010-777777-555555-----------------|
A|--8-8-8-8-8-8-8-8-8-8-8-8-777777-555555-----------------|
E|--------------------------555555-333333-----------------|
                                                          |
G. 2                                                  | x 2
e|--------------------------------------------------------|
B|--------------------------------------------------------|
G|--------------------------------------------------------|
D|-101010101010101010101010-777777-555555-----------------|
A|--8-8-8-8-8-8-8-8-8-8-8-8-777777-555555-----------------|
E|--------------------------555555-333333-----------------|



G. 1			
e|--------------------------------------------------------|
B|--------------------------------------------------------|
G|--------------------------------------------------------|
D|-101010101010101010101010-777777-555555-----------------|
A|--8-8-8-8-8-8-8-8-8-8-8-8-777777-555555-----------------|
E|--------------------------555555-333333-----------------|
                                                          |
G. 2                                                  | x 2
e|-3-3h5-3----3-3h5-3----3-3h5-3-----(-3h5-3-)------------|
B|-----------------------------------(-------)------------|part in brackets
G|---------5----------5----------5-4-(------5)------------|first time only
D|--------------------------------------------------------|
A|--------------------------------------------------------|
E|--------------------------------------------------------|



G. 1			
e|--------------------------------------------------------|
B|--------------------------------------------------------|
G|--------1212-1212121212---------------------------------|
D|-101010-1010-1010101010-10101010101010-555--------------|
A|--8-8-8--8-8--7-7-7-7-7-10101010101010-555--------------|
E|-------------------------8-8-8-8-8-8-8-333--------------|
                                                          |
G. 2                                                  | x 7
e|--------------------------------------------------------|
B|--------------------------------------------------------|
G|--------1212-1212121212---------------------------------|
D|-101010-1010-1010101010-10101010101010-555--------------|
A|--8-8-8--8-8--7-7-7-7-7-10101010101010-555--------------|
E|-------------------------8-8-8-8-8-8-8-333--------------|



G. 1
e|------------|
B|------------|
G|------------|
D|-10-10-3~---|
A|--8-10-3~---|
E|-----8-1~---|
              |
G. 2      
e|------------|
B|------------|
G|------------|
D|-10-10-3~---|
A|--8-10-3~---|
E|-----8-1~---|



there it is not the hardest song
Comments