Silverstein - Giving Up Chords & Tabs

 

Giving Up Chords & Tabs

Silverstein Chords & Tabs

Version: 5 Type: Tab 0 ratings
1 star 2 stars 3 stars 4 stars 5 stars
comments

Giving Up Tab

   
   Intro
    Moderately Slow Rock Q=120
    (Fsus2)
   4/4
    Gtr I
    E  E E E E  E E E   E  E E E E  E E E
||---------0------0---|--------0------0---|
||o-------------------|-------------------|
||-------0---0------0-|------0---0------0-|
||----10-------10-----|---10-------10-----|
||o-8-----------------|-8-----------------|
||--------------------|-------------------|


  (Amadd4)
  E E E E E E E E   E E E E E E E E
|-----------------|------------------||
|-------8-----8---|-------8-----8---o||
|-----5---5-----5-|-----5---5-----5--||
|---7-------7-----|---7-------7------||
|-0---------------|-0---------------o||
|-----------------|------------------||


 Verse
  (Fsus2)
  Gtr I
   E  E E E E  E E E    E   E E E E  E   E   E
|---------0------0---|----------0--------0-----|
|--------------------|-------------------------|
|-------0---0------0-|--------0---0----------0-|
|----10-------10-----|-----10-------10---------|
|--8-----------------|--8----------------------|
|--------------------|-------------------------|
|
| Gtr II
|  <
|  W                    H.              +E   E
|--------------------|-------------------------|
|-17-----------------|-15--------------(15)-12-|
|-17-----------------|-16--------------(16)-12-|
|--------------------|-------------------------|
|--------------------|-------------------------|
|--------------------|-------------------------|


  (Amadd4)
   E E E E E E E E     E  E E E E E E E
|------------------|--------------------|
|--------8-----8---|----------8-----8---|
|------5---5-----5-|--------5---5-----5-|
|----7-------7-----|------7-------7-----|
|--0---------------|---0----------------|
|------------------|--------------------|
|
|  W                  +W
|------------------|--------------------|
|-13---------------|-(13)---------------|
|-14---------------|-(14)---------------|
|------------------|--------------------|
|------------------|--------------------|
|------------------|--------------------|


  (Fsus2)
   E  E E E E  E E E    E  E E E   E   E  E  E
|---------0------0---|---------0----------0----|
|--------------------|-------------------------|
|-------0---0------0-|-------0-----0---------0-|
|----10-------10-----|----10----------10-------|
|--8-----------------|--8----------------------|
|--------------------|-------------------------|
|
|  W                    H         +E   E  E  E
|--------------------|-15--------(15)----------|
|-17-----------------|-17--------(17)-18-17-12-|
|-17-----------------|----------------19-17-12-|
|--------------------|-------------------------|
|--------------------|-------------------------|
|--------------------|-------------------------|


  (Amadd4)
   E E E E E E E E     E  E E E E E E E
|------------------|--------------------|
|--------8-----8---|----------8-----8---|
|------5---5-----5-|--------5---5-----5-|
|----7-------7-----|------7-------7-----|
|--0---------------|---0----------------|
|------------------|--------------------|
|
|  W                  +W
|------------------|--------------------|
|-13---------------|-(13)---------------|
|-14---------------|-(14)---------------|
|------------------|--------------------|
|------------------|--------------------|
|------------------|--------------------|


  (Fsus2)
   E  E E E E  E E E    E   E E E E  E   E   E
|---------0------0---|----------0--------0-----|
|--------------------|-------------------------|
|-------0---0------0-|--------0---0----------0-|
|----10-------10-----|-----10-------10---------|
|--8-----------------|--8----------------------|
|--------------------|-------------------------|
|
|  W                    H.              +E   E
|--------------------|-------------------------|
|-17-----------------|-15--------------(15)-12-|
|-17-----------------|-16--------------(16)-12-|
|--------------------|-------------------------|
|--------------------|-------------------------|
|--------------------|-------------------------|


  (Amadd4)
   E E E E E E E E     E  E E E E E E E
|------------------|--------------------|
|--------8-----8---|----------8-----8---|
|------5---5-----5-|--------5---5-----5-|
|----7-------7-----|------7-------7-----|
|--0---------------|---0----------------|
|------------------|--------------------|
|
|  W                  +W
|------------------|--------------------|
|-13---------------|-(13)---------------|
|-14---------------|-(14)---------------|
|------------------|--------------------|
|------------------|--------------------|
|------------------|--------------------|


  (Fsus2)                                        (Amadd4)
   E  E E E E  E E E    E  E E E   E   E  E  E    E E E E E E E E     W
|---------0------0---|---------0----------0----|------------------|---------||
|--------------------|-------------------------|--------8-----8---|-^-8-----||
|-------0---0------0-|-------0-----0---------0-|------5---5-----5-|-^-5-----||
|----10-------10-----|----10----------10-------|----7-------7-----|-^-7-----||
|--8-----------------|--8----------------------|--0---------------|-^-0-----||
|--------------------|-------------------------|------------------|---------||
|
|  W                    H         +E   E  E  E    W                  +W
|--------------------|-15--------(15)----------|------------------|---------||
|-17-----------------|-17--------(17)-18-17-12-|-13---------------|-(13)----||
|-17-----------------|----------------19-17-12-|-14---------------|-(14)----||
|--------------------|-------------------------|------------------|---------||
|--------------------|-------------------------|------------------|---------||
|--------------------|-------------------------|------------------|---------||


   Chorus
    $
    F5
    Gtr III
     S S  S  S   S   S  S S   S   S  S S  S S  S  S
||---8-0--0-15---0---0-13-0---0--12--0-0-10-0--7--7-|
||o-------------------------------------------------|
||--------------------------------------------------|
||--------------------------------------------------|
||o-------------------------------------------------|
||--------------------------------------------------|
|
|   Gtr IV
|    E    S  S  +S   S  E    +S   S  E    E    S  S
||--------------------------------------------------|
||o-------------------------------------------------|
||--10---10-10-(10)-10-10---(10)-10-10---10---10-10-|
||--10---10-10-(10)-10-10---(10)-10-10---10---10-10-|
||o--8----8--8--(8)--8--8----(8)--8--8----8----8--8-|
||--------------------------------------------------|


   S S  S  S   S   S  S S   S   S  S S  S S  S  S
|--8-0--0-15---0---0-13-0---0--12--0-0-10-0--7--7--|
|--------------------------------------------------|
|--------------------------------------------------|
|--------------------------------------------------|
|--------------------------------------------------|
|--------------------------------------------------|
|
|  E    S  S  +S   S  E    +S   S  E    E    S  S
|--------------------------------------------------|
|--------------------------------------------------|
|-10---10-10-(10)-10-10---(10)-10-10---10---10-10--|
|-10---10-10-(10)-10-10---(10)-10-10---10---10-10--|
|--8----8--8--(8)--8--8----(8)--8--8----8----8--8--|
|--------------------------------------------------|


  A5
  S S S  S  S  S  S S  S   S S S  S S S S
|-8-0-0-15--0--0-13-0--0--12-0-0-10-0-7-7-|
|-----------------------------------------|
|-----------------------------------------|
|-----------------------------------------|
|-----------------------------------------|
|-----------------------------------------|
|
| E   S  S +S  S  E   +S   S E    E   S S
|-----------------------------------------|
|-----------------------------------------|
|-----------------------------------------|
|-7---7--7-(7)-7--7---(7)--7-7----7---7-7-|
|-7---7--7-(7)-7--7---(7)--7-7----7---7-7-|
|-7---7--7-(7)-7--7---(7)--7-7----7---7-7-|


                                 To Coda
  S S S  S  S  S  S S  S   S S S  S S S S
|-8-0-0-15--0--0-13-0--0--12-0-0-10-0-7-7--||
|-----------------------------------------o||
|------------------------------------------||
|------------------------------------------||
|-----------------------------------------o||
|------------------------------------------||
|
| E   S  S +S  S  E   +S   S E    E   S S
|------------------------------------------||
|-----------------------------------------o||
|------------------------------------------||
|-7---7--7-(7)-7--7---(7)--7-7----7---7-7--||
|-7---7--7-(7)-7--7---(7)--7-7----7---7-7-o||
|-7---7--7-(7)-7--7---(7)--7-7----7---7-7--||


   Verse
    F5                          G5
    E +S  S E S S +S  S E E E   E +S  S E S S +S  S E E E
||----------------------------|---------------------------|
||o---------------------------|---------------------------|
||----------------------------|---------------------------|
||--3-(3)-3-3-3-3-(3)-3-3-3-3-|-5-(5)-5-5-5-5-(5)-5-5-5-5-|
||o-3-(3)-3-3-3-3-(3)-3-3-3-3-|-5-(5)-5-5-5-5-(5)-5-5-5-5-|
||--3-(3)-3-3-3-3-(3)-3-3-3-3-|-5-(5)-5-5-5-5-(5)-5-5-5-5-|
|
|   E +S  S E S S +S  S E E E   E +S  S E S S +S  S E E E
||----------------------------|---------------------------|
||o---------------------------|---------------------------|
||----------------------------|---------------------------|
||--3-(3)-3-3-3-3-(3)-3-3-3-3-|-5-(5)-5-5-5-5-(5)-5-5-5-5-|
||o-3-(3)-3-3-3-3-(3)-3-3-3-3-|-5-(5)-5-5-5-5-(5)-5-5-5-5-|
||--3-(3)-3-3-3-3-(3)-3-3-3-3-|-5-(5)-5-5-5-5-(5)-5-5-5-5-|


  1.
  A5
  S S S  S  S  S  S S  S   S S S  S S S S
|-8-0-0-15--0--0-13-0--0--12-0-0-10-0-7-7-|
|-----------------------------------------|
|-----------------------------------------|
|-----------------------------------------|
|-----------------------------------------|
|-----------------------------------------|
|
| E   S  S +S  S  E   +S   S E    E   S S
|-----------------------------------------|
|-----------------------------------------|
|-----------------------------------------|
|-7---7--7-(7)-7--7---(7)--7-7----7---7-7-|
|-7---7--7-(7)-7--7---(7)--7-7----7---7-7-|
|-7---7--7-(7)-7--7---(7)--7-7----7---7-7-|


  S S S  S  S  S  S S  S   S S S  S S S S
|-8-0-0-15--0--0-13-0--0--12-0-0-10-0-7-7--||
|-----------------------------------------o||
|------------------------------------------||
|------------------------------------------||
|-----------------------------------------o||
|------------------------------------------||
|
| E   S  S +S  S  E   +S   S E    E   S S
|------------------------------------------||
|-----------------------------------------o||
|------------------------------------------||
|-7---7--7-(7)-7--7---(7)--7-7----7---7-7--||
|-7---7--7-(7)-7--7---(7)--7-7----7---7-7-o||
|-7---7--7-(7)-7--7---(7)--7-7----7---7-7--||


  2.
  A5
  S S S  S  S  S  S S  S   S S S  S S S S
|-8-0-0-15--0--0-13-0--0--12-0-0-10-0-7-7-|
|-----------------------------------------|
|-----------------------------------------|
|-----------------------------------------|
|-----------------------------------------|
|-----------------------------------------|
|
| E   S  S +S  S  E   +S   S E    E   S S
|-----------------------------------------|
|-----------------------------------------|
|-----------------------------------------|
|-7---7--7-(7)-7--7---(7)--7-7----7---7-7-|
|-7---7--7-(7)-7--7---(7)--7-7----7---7-7-|
|-7---7--7-(7)-7--7---(7)--7-7----7---7-7-|


                    N.C.
  S S S  S S S  S S S  S S S  S S S S
|-8-0-0-15-0-0-13-0-0-12-0-0-10-0-7-7-||
|-------------------------------------||
|-------------------------------------||
|-------------------------------------||
|-------------------------------------||
|-------------------------------------||
|
| E   S  S S S  E   S  S S S  S S S S
|-------------------------------------||
|-------------------------------------||
|-------------------------------------||
|-7---7--7---7--7---x--x-x-x--x-x-x-x-||
|-7---7--7---7--7---x--x-x-x--x-x-x-x-||
|-7---7--7---7--7---x--x-x-x--x-x-x-x-||


   Bridge
    F5         Fsus2      C           C5              G
    Gtrs III, IV
     E  +S   S  E  E  +S  S S S E E   E +S  S E E +S  S S +S  S S S S   3x
||----------------------------------|-----------------------------------||
||o---------------------------------|----------------------------------o||
||--10-(10)-10-12-12-(12)-5-5-5-5-5-|-5-(5)-5-5-5-(5)-4-4-(4)-4-4-4-4---||
||--10-(10)-10-10-10-(10)-2-2-2-2-2-|-5-(5)-5-5-5-(5)-5-5-(5)-5-5-5-5---||
||o--8--(8)--8--8--8--(8)-3-3-3-3-3-|-3-(3)-3-3-3-(3)-5-5-(5)-5-5-5-5--o||
||----------------------------------|-----------------5-5-(5)-5-5-5-5---||


                                                      D.S. al Coda
  F5         Fsus2      C           C5                G
   E  +S   S  E  E  +S  S S S E E   E +S  S +E  E +S  S S S S S S S
|---------------------------------|---------------------------------||
|---------------------------------|---------------------------------||
|-10-(10)-10-12-12-(12)-5-5-5-5-5-|-5-(5)-5-(5)-5-(5)-4-4-4-4-4-4-4-||
|-10-(10)-10-10-10-(10)-2-2-2-2-2-|-5-(5)-5-(5)-5-(5)-5-5-5-5-5-5-5-||
|--8--(8)--8--8--8--(8)-3-3-3-3-3-|-3-(3)-3-(3)-3-(3)-5-5-5-5-5-5-5-||
|---------------------------------|-------------------5-5-5-5-5-5-5-||


 Breakdown
  &
  F5             G5
 4/4
  PM----|        PM----|
  E. E. E H      E. E. E H
|--------------|--------------|
|--------------|--------------|
|--------------|--------------|
|---------3----|---------5----|
|-3--3--3-3----|-5--5--5-5----|
|-3--3--3-3----|-5--5--5-5----|


  A5
  Gtr III
   E.  E.  E  E.  E.  E    E.  E.  E  E.  E.  E
|-----------------------|-----------------------|
|-----------------------|-----------------------|
|-17--17--17-16--16--16-|-14--14--14-16--16--16-|
|--x---x---x--x---x---x-|--x---x---x--x---x---x-|
|-15--15--15-14--14--14-|-12--12--12-14--14--14-|
|-----------------------|-----------------------|
|
| Gtr IV
|  E.  E.  E  E.  E.  E    E.  E.  E  E.  E.  E
|-----------------------|-----------------------|
|-----------------------|-----------------------|
|-----------------------|-----------------------|
|--7---7---7--7---7---7-|--7---7---7--7---7---7-|
|--7---7---7--7---7---7-|--7---7---7--7---7---7-|
|--7---7---7--7---7---7-|--7---7---7--7---7---7-|


  A5
  Gtrs III, IV
  PM----|        PM----|
  E. E. E H      E. E. E H
|--------------|--------------|
|--------------|--------------|
|--------------|--------------|
|---------3----|---------5----|
|-3--3--3-3----|-5--5--5-5----|
|-3--3--3-3----|-5--5--5-5----|

[ Tab from: http://www.guitartabs.cc/tabs/s/silverstein/giving_up_tab_ver_5.html ]
                                              N.C.
  E S S +S  S E +S  S E E S S   E S S +S  S E S S S S S S S S
|-----------------------------|--------------------------------||
|-----------------------------|--------------------------------||
|-----------------------------|--------------------------------||
|-7-7-7-(7)-7-7-(7)-7-7-7-7-7-|-7-7-7-(7)-7-7-x-x-x-x-x-x-x-x--||
|-7-7-7-(7)-7-7-(7)-7-7-7-7-7-|-7-7-7-(7)-7-7-x-x-x-x-x-x-x-x--||
|-7-7-7-(7)-7-7-(7)-7-7-7-7-7-|-7-7-7-(7)-7-7-x-x-x-x-x-x-x-x--||


   Bridge
    F5         Fsus2      C           C5              G
     E  +S   S  E  E  +S  S S S E E   E +S  S E E +S  S S +S  S S S S   3x
||----------------------------------|-----------------------------------||
||o---------------------------------|----------------------------------o||
||--10-(10)-10-12-12-(12)-5-5-5-5-5-|-5-(5)-5-5-5-(5)-4-4-(4)-4-4-4-4---||
||--10-(10)-10-10-10-(10)-2-2-2-2-2-|-5-(5)-5-5-5-(5)-5-5-(5)-5-5-5-5---||
||o--8--(8)--8--8--8--(8)-3-3-3-3-3-|-3-(3)-3-3-3-(3)-5-5-(5)-5-5-5-5--o||
||----------------------------------|-----------------5-5-(5)-5-5-5-5---||


  F5         Fsus2      C           G5
   E  +S   S  E  E  +S  S S S E E   W
|---------------------------------|------||
|---------------------------------|------||
|-10-(10)-10-12-12-(12)-5-5-5-5-5-|------||
|-10-(10)-10-10-10-(10)-2-2-2-2-2-|-5----||
|--8--(8)--8--8--8--(8)-3-3-3-3-3-|-5----||
|---------------------------------|-5----||


   Re-Intro
    (Fsus2)
    Gtr I
     E  E     E     E  E     E  E     E       E  E     E     E  E     E  E     E
||------------------0-----------0----------|-----------------0-----------0----------|
||o----------------------------------------|----------------------------------------|
||------------0--------0--------------0----|-----------0--------0--------------0----|
||-----10-------------------10-------------|----10-------------------10-------------|
||o--8-------------------------------------|--8-------------------------------------|
||-----------------------------------------|----------------------------------------|
|
|   Gtr V
|    E  S  S  S  S  E  S  S  E  S  S  S  S    E  S  S  S  S  E  S  S  E  S  S  S  S
||---0--0--0--0--0--0--0--0--0--0--0--0--0-|--0--0--0--0--0--0--0--0--0--0--0--0--0-|
||o--0--0--0--0--0--0--0--0--0--0--0--0--0-|--0--0--0--0--0--0--0--0--0--0--0--0--0-|
||--12-12-12-12-12-12-12-12-12-12-12-12-12-|-12-12-12-12-12-12-12-12-12-12-12-12-12-|
||--10-10-10-10-10-10-10-10-10-10-10-10-10-|-10-10-10-10-10-10-10-10-10-10-10-10-10-|
||o--8--8--8--8--8--8--8--8--8--8--8--8--8-|--8--8--8--8--8--8--8--8--8--8--8--8--8-|
||-----------------------------------------|----------------------------------------|


  (Amadd4)
  E E   E   E E   E E   E     E E   E   E E   E E   E
|---------------------------|-------------------------------||
|-----------8-------8-------|-----------8-------8----------o||
|-------5-----5---------5---|-------5-----5---------5-------||
|---7-------------7---------|---7-------------7-------------||
|-0-------------------------|-0----------------------------o||
|---------------------------|-------------------------------||
|
| E S S S S E S S E S S S S   E S S S S E S S E S S S S
|-0-0-0-0-0-0-0-0-0-0-0-0-0-|-0-0-0-0-0-0-0-0-0-0-0-0-0-----||
|-8-8-8-8-8-8-8-8-8-8-8-8-8-|-8-8-8-8-8-8-8-8-8-8-8-8-8----o||
|-5-5-5-5-5-5-5-5-5-5-5-5-5-|-7-7-7-7-7-7-7-7-7-7-7-7-7-----||
|-7-7-7-7-7-7-7-7-7-7-7-7-7-|-7-7-7-7-7-7-7-7-7-7-7-7-7-----||
|-0-0-0-0-0-0-0-0-0-0-0-0-0-|-0-0-0-0-0-0-0-0-0-0-0-0-0----o||
|---------------------------|-------------------------------||


 Verse
  (Fsus2)
  Gtr I
   E  E     E     E  E     E  E     E       E   E     E     E  E     E   E      E
|-----------------0-----------0----------|------------------0------------0-----------|
|----------------------------------------|-------------------------------------------|
|-----------0--------0--------------0----|------------0--------0----------------0----|
|----10-------------------10-------------|-----10-------------------10---------------|
|--8-------------------------------------|--8----------------------------------------|
|----------------------------------------|-------------------------------------------|
|
| Gtr II
|  W                                        H.                          +E      E
|----------------------------------------|-------------------------------------------|
|-17-------------------------------------|-15--------------------------(15)----12----|
|-17-------------------------------------|-16--------------------------(16)----12----|
|----------------------------------------|-------------------------------------------|
|----------------------------------------|-------------------------------------------|
|----------------------------------------|-------------------------------------------|
|
| Gtr V
|  E  S  S  S  S  E  S  S  E  S  S  S  S    E   S  S  S  S  E  S  S  E   S   S  S  S
|--0--0--0--0--0--0--0--0--0--0--0--0--0-|--0---0--0--0--0--0--0--0--0---0---0--0--0-|
|--0--0--0--0--0--0--0--0--0--0--0--0--0-|--0---0--0--0--0--0--0--0--0---0---0--0--0-|
|-12-12-12-12-12-12-12-12-12-12-12-12-12-|-12--12-12-12-12-12-12-12-12--12--12-12-12-|
|-10-10-10-10-10-10-10-10-10-10-10-10-10-|-10--10-10-10-10-10-10-10-10--10--10-10-10-|
|--8--8--8--8--8--8--8--8--8--8--8--8--8-|--8---8--8--8--8--8--8--8--8---8---8--8--8-|
|----------------------------------------|-------------------------------------------|


  (Fsus2)                      (C)
   E E   E   E E   E E   E       E  E   E   E E   E E   E
|----------------------------|--------------0-------0----------|
|------------8-------8-------|----------1-----1---------1------|
|--------5-----5---------5---|------0-------------0------------|
|----7-------------7---------|---------------------------------|
|--0-------------------------|---3-----------------------------|
|----------------------------|---------------------------------|
|
|  W                            +W
|----------------------------|---------------------------------|
|-13-------------------------|-(13)----------------------------|
|-14-------------------------|-(14)----------------------------|
|----------------------------|---------------------------------|
|----------------------------|---------------------------------|
|----------------------------|---------------------------------|
|
|  E S S S S E S S E S S S S     E  S S S S E S S E S S S S
|--0-0-0-0-0-0-0-0-0-0-0-0-0-|---3--3-3-3-3-3-3-3-3-3-3-3-3----|
|--8-8-8-8-8-8-8-8-8-8-8-8-8-|---3--3-3-3-3-3-3-3-3-3-3-3-3----|
|--5-5-5-5-5-5-5-5-5-5-5-5-5-|---0--0-0-0-0-0-0-0-0-0-0-0-0----|
|--7-7-7-7-7-7-7-7-7-7-7-7-7-|---2--2-2-2-2-2-2-2-2-2-2-2-2----|
|--0-0-0-0-0-0-0-0-0-0-0-0-0-|---3--3-3-3-3-3-3-3-3-3-3-3-3----|
|----------------------------|---------------------------------|


  (Fsus2)
   E  E     E     E  E     E  E     E       E  E     E     E   E      E  E     E
|-----------------0-----------0----------|-----------------0-------------0----------|
|----------------------------------------|------------------------------------------|
|-----------0--------0--------------0----|-----------0---------0---------------0----|
|----10-------------------10-------------|----10---------------------10-------------|
|--8-------------------------------------|--8---------------------------------------|
|----------------------------------------|------------------------------------------|
|
|  W                                        H                 +E      E  E     E
|----------------------------------------|-15----------------(15)-------------------|
|-17-------------------------------------|-17----------------(17)----18-17----12----|
|-17-------------------------------------|---------------------------19-17----12----|
|----------------------------------------|------------------------------------------|
|----------------------------------------|------------------------------------------|
|----------------------------------------|------------------------------------------|
|
|  E  S  S  S  S  E  S  S  E  S  S  S  S    E  S  S  S  S  E   S   S  E  S  S  S  S
|--0--0--0--0--0--0--0--0--0--0--0--0--0-|--0--0--0--0--0--0---0---0--0--0--0--0--0-|
|--0--0--0--0--0--0--0--0--0--0--0--0--0-|--0--0--0--0--0--0---0---0--0--0--0--0--0-|
|-12-12-12-12-12-12-12-12-12-12-12-12-12-|-12-12-12-12-12-12--12--12-12-12-12-12-12-|
|-10-10-10-10-10-10-10-10-10-10-10-10-10-|-10-10-10-10-10-10--10--10-10-10-10-10-10-|
|--8--8--8--8--8--8--8--8--8--8--8--8--8-|--8--8--8--8--8--8---8---8--8--8--8--8--8-|
|----------------------------------------|------------------------------------------|


  (Amadd4)                     C5
                               Gtrs III, IV
                                 PM-------|
   E E   E   E E   E E   E       E   E  E  E  E  E  E  E
|----------------------------|---------------------------||
|------------8-------8-------|---------------------------||
|--------5-----5---------5---|---------------------------||
|----7-------------7---------|---------------10-10-10-10-||
|--0-------------------------|--10--10-10-10-10-10-10-10-||
|----------------------------|--10--10-10-10-10-10-10-10-||
|
|  W                            +W
|----------------------------|---------------------------||
|-13-------------------------|-(13)----------------------||
|-14-------------------------|-(14)----------------------||
|----------------------------|---------------------------||
|----------------------------|---------------------------||
|----------------------------|---------------------------||
|
|  E S S S S E S S E S S S S     W
|--0-0-0-0-0-0-0-0-0-0-0-0-0-|---------------------------||
|--8-8-8-8-8-8-8-8-8-8-8-8-8-|---------------------------||
|--5-5-5-5-5-5-5-5-5-5-5-5-5-|---------------------------||
|--7-7-7-7-7-7-7-7-7-7-7-7-7-|---------------------------||
|--0-0-0-0-0-0-0-0-0-0-0-0-0-|---------------------------||
|----------------------------|---------------------------||


   Interlude
    F5
    Gtrs III, IV
     E.  E.  E  E.  E.  E    E.  E.  E  E.  E.  E
||------------------------|-----------------------|
||o-----------------------|-----------------------|
||--10--10--10-10--10--10-|-10--10--10-10--10--10-|
||--10--10--10-10--10--10-|-10--10--10-10--10--10-|
||o--8---8---8--8---8---8-|--8---8---8--8---8---8-|
||------------------------|-----------------------|


  A5                G5
  E. E. E E. E. E   E. E. E E. E. E
|-----------------|------------------||
|-----------------|-----------------o||
|-----------------|------------------||
|-7--7--7-7--7--7-|-5--5--5-5--5--5--||
|-7--7--7-7--7--7-|-5--5--5-5--5--5-o||
|-7--7--7-7--7--7-|-5--5--5-5--5--5--||


    F5
    Gtr IV
     E  E     E  E  E   a  E      a  E  E
||------------3-----3--(3)s5-----(5)s3----|
||o--1--1--------1----------------------1-|
||----------------------------------------|
||----------------------------------------|
||o---------------------------------------|
||----------------------------------------|
|
|   Gtr III
|    E.    E.    E  E.        E.        E
||----------------------------------------|
||o---------------------------------------|
||--10----10----10-10--------10--------10-|
||--10----10----10-10--------10--------10-|
||o--8-----8-----8--8---------8---------8-|
||----------------------------------------|


   E  E     E  E  E   a  E      a  E  E
|-----------3-----3--(3)s5-----(5)s3-----|
|--1--1--------1----------------------1--|
|----------------------------------------|
|----------------------------------------|
|----------------------------------------|
|----------------------------------------|
|
|  E.    E.    E  E.        E.        E
|----------------------------------------|
|----------------------------------------|
|-10----10----10-10--------10--------10--|
|-10----10----10-10--------10--------10--|
|--8-----8-----8--8---------8---------8--|
|----------------------------------------|


  A5                                G5
  E  E    E E E   a  E     a  E E   E  E    E E E   a  E     a  E E
|---------3---3--(3)s5----(5)s3---|---------3---3--(3)s5----(5)s3----||
|-1--1------1-------------------1-|-0--1------0-------------------0-o||
|---------------------------------|----------------------------------||
|---------------------------------|----------------------------------||
|---------------------------------|---------------------------------o||
|---------------------------------|----------------------------------||
|
| E.   E.   E E.       E.       E   E.   E.   E E.       E.       E
|---------------------------------|----------------------------------||
|---------------------------------|---------------------------------o||
|---------------------------------|----------------------------------||
|-7----7----7-7--------7--------7-|-5----5----5-5--------5--------5--||
|-7----7----7-7--------7--------7-|-5----5----5-5--------5--------5-o||
|-7----7----7-7--------7--------7-|-5----5----5-5--------5--------5--||


   Outro
    F5         Fsus2      C           C5              G
    Gtrs III, IV
     E  +S   S  E  E  +S  S S S E E   E +S  S E E +S  S S +S  S S S S   7x
||----------------------------------|-----------------------------------||
||o---------------------------------|----------------------------------o||
||--10-(10)-10-12-12-(12)-5-5-5-5-5-|-5-(5)-5-5-5-(5)-4-4-(4)-4-4-4-4---||
||--10-(10)-10-10-10-(10)-2-2-2-2-2-|-5-(5)-5-5-5-(5)-5-5-(5)-5-5-5-5---||
||o--8--(8)--8--8--8--(8)-3-3-3-3-3-|-3-(3)-3-3-3-(3)-5-5-(5)-5-5-5-5--o||
||----------------------------------|-----------------5-5-(5)-5-5-5-5---||


  F5     C5    A5
   E. E. E. E. Q    +W
|-----------------|--------*|
|-----------------|--------*|
|-10-----5-----2--|-(2)----*|
|-10-----5-----2--|-(2)----*|
|--8-----3-----0--|-(0)----*|
|-----------------|--------*|




--------------------------------------------------------------------------------


Duration Legend
---------------
W - whole; H - half; Q - quarter; E - 8th; S - 16th; T - 32nd; X - 64th; a - acciaccatura
+ - note tied to previous; . - note dotted; .. - note double dotted
Uncapitalized letters represent notes that are staccato (1/2 duration)
Irregular groupings are notated above the duration line
Duration letters will always appear directly above the note/fret number it represents the
duration for.  Duration letters with no fret number below them represent rests.  Multi-
bar rests are notated in the form Wxn, where n is the number of bars to rest for.  Low
melody durations appear below the staff

Tablature Legend
----------------
 h   - hammer-on
 p   - pull-off
 b   - bend
 pb  - pre-bend
 r   - bend release (if no number after the r, then release immediately)
 /\  - slide into or out of (from/to "nowhere")
 s   - legato slide
 S   - shift slide
 - natural harmonic
[n]  - artificial harmonic
n(n) - tapped harmonic
 ~   - vibrato
 tr  - trill
 T   - tap
 TP  - trem. picking
 PM  - palm muting
\n/  - tremolo bar dip; n = amount to dip
 \n  - tremolo bar down
 n/  - tremolo bar up
/n\  - tremolo bar inverted dip
 =   - hold bend; also acts as connecting device for hammers/pulls
 <> - volume swell (louder/softer)
 x   - on rhythm slash represents muted slash
 o   - on rhythm slash represents single note slash

Misc Legend
-----------
 |  - bar
||  - double bar
||o - repeat start
o|| - repeat end
*|  - double bar (ending)
 :  - bar (freetime)
 $  - Segno
 &  - Coda
Tempo markers -  = BPM(8/16=s8/s16), where s8 = swing 8ths, s16 = swing 16ths
Comments