Silverstein - Giving Up Chords & Tabs

 

Giving Up Chords & Tabs

Silverstein Chords & Tabs

Version: 3 Type: Tab 0 ratings
1 star 2 stars 3 stars 4 stars 5 stars
comments

Giving Up Tab

I just corrected the last tab, cause i think there was a mistake in the chorus...
everythink with drop D ""
paras@gmx.de


Intro- repeat a couple times
e |-------------------------------------------3---3-----------3---3---|
B |---------5---5------------5---5------------------------------------|
G |-----5-----5---5------5-----5---5------5-----5---5-----5-----5---5-|
D |---3---3------------3---3------------------------------------------|
A |-------------------------------------0---0-----------0---0---------|
D |-------------------------------------------------------------------|
[ Tab from: http://www.guitartabs.cc/tabs/s/silverstein/giving_up_tab_ver_3.html ]
Verse  strumming not shown
e |---------------------------------------------------------|
B |---------------------------------------------------------|
G |---10-------10-------------------------------------------|
D |---10---7---10---7-------3---5---7-----3---5---7---------|
A |----8---7----8---7-------3---5---7-----3---5---7---------|
D |--------7--------7-------3---5---7-----3---5---7---------|

Chorus
e |------------------------------------------|
B |------------------------------------------|
G |---10---10---5-------10---10---5----------|
D |---10---10---5---5---10---10---5---5------|
A |----8----7---3---5----8----7---3---5------|
D |-----------------5-----------------5------|

Repeat Verse
Repeat Chorus
Repeat Intro

Break
e |-----------------|
B |-----------------|
G |---10------------|
D |---10---7---5----|
A |----8---7---5----|
D |--------7---5----|

Repeat Chorus
End
e |-----------------|
B |-----------------|
G |---10------------|
D |---10---10---7---|
A |----8---10---7---|
D |--------10---7---|
Comments