Silverstein - Giving Up Chords & Tabs

 

Giving Up Chords & Tabs

Silverstein Chords & Tabs

Version: 1 Type: Bass Tab

Giving Up Bass Tab

G|---------------------------------------|
D|-33333-33-33333-33---------------------|
A|-------------------00000-00-00000-00---| x5
E|---------------------------------------|
    (on fifth time let last note ring)

G|---------------------------------------|
D|-333333333333--------------------------|
A|--------------000000000000-------------| x2
E|---------------------------------------|

G|---------------------------------------|
D|---------------------------------------|
A|-------------------00000000000000000---| x2
E|-1-111-11-3-333-33---------------------|

G|-----------------------|
D|-3-3333----------------|
A|---------3---0000------| x4
E|-------1---1------33---|

G|---------------------------------------|
D|-333333333333--------------------------|
A|--------------000000000000-------------| x2
E|---------------------------------------|
[ Tab from: http://www.guitartabs.cc/tabs/s/silverstein/giving_up_btab.html ]
G|-----------------------------------------|
D|-----------------------------------------|
A|-------------------0-0-0-0-0-0-0-0-0-0-0-| x2
E|-1-1-11-3-3-33---------------------------|

G|-----------------------|
D|-3-3333----------------|
A|---------3---0000------| x4
E|-------1---1------33---|

G|---------------------------------------|
D|-33333-33-33333-33---------------------|
A|-------------------00000-00-00000-00---| x2
E|---------------------------------------|

G|---------------------------------------|
D|-33333-33-33333-33---------------------|
A|-------------------00000-00-33333-33---| x2
E|---------------------------------------|

G|---------------------------------------|
D|-333333333333--------------------------|
A|--------------000000-------------------| x4
E|---------------------333333------------|

G|-----------------------|
D|-3-3333----------------|
A|---------3---0000------| x4
E|-------1---1------33---|

G|-----------------------|
D|-3---------------------|
A|---3-0~----------------|
E|-----------------------|