Silverstein - Friends In Fall River Chords & Tabs

 

Friends In Fall River Chords & Tabs

Silverstein Chords & Tabs

Version: 2 Type: Tab 0 ratings
1 star 2 stars 3 stars 4 stars 5 stars
comments

Friends In Fall River Tab

   
... = Palm mute
Guitar 1
e|--------------------------------------------------------|
B|--------------------------------------------------------|
G|-11111111111111-9-9-9-9-9-9--999999-1111----9-11--------|
D|-9-9-9-9-9-9--9-111111111111-777777-1313-13-------------|
A|--------------------------------------------------------|
E|--------------------------------------------------------|
     ....  ....     ..  ....    . ..
Guitar 1
e|--------------------------------------------------------|
B|--------------------------------------------------------|
G|-11111111111111-9-9-9-9-9-9--999999-1111----9-11--------|
D|-9-9-9-9-9-9--9-111111111111-777777-1313-13-------------|
A|--------------------------------------------------------|
E|--------------------------------------------------------|
Cont ....  ....     ..  ....    . ..
e|--------------------------------------------------------|
B|--------------------------------------------------------|
G|-11111111111111-9-9-9-9-9-9--999999-1111----9-11--------|
D|-9-9-9-9-9-9--9-111111111111-777777-1313-13-------------|
A|--------------------------------------------------------|
E|--------------------------------------------------------|
Cont ....  ....     ..  ....    . ..
e|--------------------------------------------------------|
B|--------------------------------------------------------|
G|-11111111111111-9-9-9-9-9-9--999999-1111----9-11--------|
D|-9-9-9-9-9-9--9-111111111111-777777-1313-13-------------|
A|--------------------------------------------------------|
E|--------------------------------------------------------|
     ....  ....     ..  ....    . ..
e|-7------------------------7-----7----7----7----|
B|-7----------------------------7-----7---7------|
YOU MUST USE HARMONICS ON THIS PART FOR IT TO WORK!
Cont                                                      |
e|----------------------------14-12-11-12-------------------|
B|----------------------------------------12~---------------|
G|----------------------------------------------------------|
D|----------------------------------------------------------|
A|----------------------------------------------------------|
E|----------------------------------------------------------|
Cont                                                      |
e|------1414-1212-11-11--12121212\----------------------------|
B|------------------------------------------------------------|
G|------------------------------------------------------------|
D|------------------------------------------------------------|
A|------------------------------------------------------------|
E|------------------------------------------------------------|

|---------------------------------------------------------------------------|
B|--------------------------------------------------------------------------|
G|--------------------------------------------------------------------------|
D|-99-77-1111-777-9977-99-77-1111--99-77-1111-777-9977-99-77-1111-----------|
A|-99-77-1111-777-9977-99-77-1111--99-77-1111-777-9977-99-77-1111-----------|
E|-77-55--9-9-555-7755-77-55--9-9--77-55--9-9-555-7755-77-55--9-9-----------|
[ Tab from: http://www.guitartabs.cc/tabs/s/silverstein/friends_in_fall_river_tab_ver_2.html ]
(This is the beginning just repeated)More PM :)
Guitar 1
e|--------------------------------------------------------|
B|--------------------------------------------------------|
G|--------------------------------------------------------|
D|-9999999999999999-11111111111111111111111111111111------|
A|-9999999999999999-11111111111111111111111111111111------|
E|-7777777777777777--9-9-9-9-9-9-9-9-9-9-9-9-9-9-9-9------|
   ............... ................................
Guitar 1
e|--------------------------------------------------------|
B|--------------------------------------------------------|
G|-----------------------------13~-----16~----------------|
D|-~(let ring from before ^ )-----------------------------|
A|-~---------------------------11~-----14~----------------|
E|-~------------------------------------------------------|
                                                          | x 1
Guitar 2                                                  |
e|--------------------------------------------------------|
B|--------------------------------------------------------|
G|-7~-----------------------------------------------------|
D|--------------------------------------------------------|
A|-5~-----------------------------------------------------|
E|--------------------------------------------------------|
Guitar 1
e|--------------------------------------------------------------|
B|--------------------------------------------------------------|
G|--------------------------------------------------------------|
D|-6666666666-6666666666-7-7-7-7-7-7-7-7-7-7--222222--444444----|
A|-4444444444-6666666666-7-7-7-7-7-7-7-7-7-7--222222--222222----|
E|------------4444444444-5-5-5-5-5-5-5-5-5-5--000000------------|
                                                                |
Guitar 2                                                        | x 2
e|--------------------------------------------------------------|
B|--------------------------------------------------------------|
G|-6666666666-8888888888-141414-131313-141414-13131313-16161616-|
D|--------------------------------------------------------------|
A|-4444444444-6666666666-121212-111111-121212-11111111-14141414-|
E|--------------------------------------------------------------|
Guitar 1
e|--------------------------------------------------------|
B|--------------------------------------------------------|
G|--------------------------------------------------------|
D|-6666666666-6666666666-7777777777--222222--444444-------|
A|-4444444444-6666666666-7777777777--222222--222222-------|
E|------------4444444444-5555555555--000000---------------|
Cont                                                      |
e|--------------------------------------------------------|
B|--------------------------------------------------------|
G|--------------------------------------------------------|
D|-6666666666-6666666666-7777777777--2~--4~--6~-----------|
A|-4444444444-6666666666-7777777777--2~--2~--4~-----------|
E|------------4444444444-5555555555--0~-------------------|
                                                          | x 1
Guitar 2                                                  |
e|-12----14----16----14----12----14----16----14p12--------|
B|----12----12----12----12----12----12----12-------12-----|
G|--------------------------------------------------------|
D|--------------------------------------------------------|
A|--------------------------------------------------------|
E|--------------------------------------------------------|
Cont                                                        |
e|-12----14----16----14----1414141414141414-1616161616161616|
B|----12----12----12----12----------------------------------|
G|----------------------------------------------------------|
D|----------------------------------------------------------|
A|----------------------------------------------------------|
E|----------------------------------------------------------|____
Cont                                                             |
e|---------------------------------------------------------------|
B|---------------------------------------------------------------|
G|-6666666666-8888888888-141414-131313-141414-13131313-16~-4~-6~-|
D|---------------------------------------------------------------|
A|-4444444444-6666666666-121212-111111-121212-11111111-14~-2~-4~-|
E|---------------------------------------------------------------|
Comments