Silverchair - World Upon Your Shoulders Chords & Tabs

 

World Upon Your Shoulders Chords & Tabs

Silverchair Chords & Tabs

Version: 2 Type: Tab 0 ratings
1 star 2 stars 3 stars 4 stars 5 stars
comments

World Upon Your Shoulders Tab

Intro

E|-----7--------5-----3-3--2/3-----3------7----7h8---10--------5-3-3--3-2-0----------------|
B|--/8---8----3---3---3--------3-------/8---------------8----3---3----------3/5------------|
G|---0------0------0--0----------0------0----0-----0-------0-----0---------------2/0-------|
D|----------0-------------------------------------------------------------------------0-1--|
A|-----------------------------------------------------------------------------------------|
E|-----------------------------------------------------------------------------------------|


Verse

E|-0-----2-----------0-------0-----2-----------------------0-| x2
B|-8-----3-----7-----5-------8-----3-----7-----8-----3-----5-|
G|-9-----x-----x-----0-------9-----x-----x-----0-----0-----0-|
D|-9-----4-----7-----5-------9-----4-----7-----9-----4-----5-|
A|-7-----2-----5-----3-------7-----2-----5-----7-----2-----3-|
E|-----------------------------------------------------------|

All the bridges in the world won't save you
If there is no other side to cross to


Pre-Chorus

E|--2-----3-----|x2
B|--0-----1-----|
G|--2-----0-----|
D|--0-----2-----|
A|--2-----0-----|
E|--------------|

When you're not feelin' again
The world's not too much


Chorus

E|--2-----0-----2-----3-----3-----|x2
B|--0-----1-----0-----1-----3-----|
G|--2-----0-----2-----0-----0-----|
D|--0-----2-----0-----2-----0-----|
A|--0-----0-----0-----3-----2-----|
E|--2-----------2-----------3-----|

Take the world upon your shoulders
Take the world upon your shoulders
And burn, burn, burn, burn, burn
Take the world upon your shoulders


Bridge

E|--0-2-0---0-------------|
B|--------3---------------|
G|------------2/0---------|
D|-------------------0-1--|
A|------------------------|
E|------------------------|


Verse

E|-0-----2-----------0-------0-----2-----------------------0-|
B|-8-----3-----7-----5-------8-----3-----7-----8-----3-----5-|
G|-9-----x-----x-----0-------9-----x-----x-----0-----0-----0-|
D|-9-----4-----7-----5-------9-----4-----7-----9-----4-----5-|
A|-7-----2-----5-----3-------7-----2-----5-----7-----2-----3-|
E|-----------------------------------------------------------| 
Half the ? 
Lost in empty houses



Pre-Chorus

E|--2-----3------5-----3-----2-----3-----|
B|--0-----1--5/7---7/5-------0-----1-----|
G|--2-----0------------------2-----0-----|
D|--0-----2------------------0-----2-----|
A|--2-----0------------------2-----0-----|
E|---------------------------------------|

When you're not feeling again
The world's not too much


Chorus
[ Tab from: http://www.guitartabs.cc/tabs/s/silverchair/world_upon_your_shoulders_tab_ver_2.html ]
E|--2-----0-----2-----3-----3-----|x2
B|--0-----1-----0-----1-----3-----|
G|--2-----0-----2-----0-----0-----|
D|--0-----2-----0-----2-----0-----|
A|--0-----0-----0-----3-----2-----|
E|--2-----------2-----------3-----|

Take the world upon your shoulders
Take the world upon your shoulders
And burn, burn, burn, burn, burn
Take the world upon your shoulders


Interlude


E|---------6---------------6-------|---------3---------------3-------| x2
B|-----4-----4---4-----4-----4---4-|-----1-----1---1-----1-----1---1-|
G|-------0-----0---------0-----0---|-------0-----0---------0-----0---|
D|---5---------------5-------------|---2---------------2-------------|
A|-6---------------6---------------|-3---------------3---------------|
E|---------------------------------|---------------------------------|


Violent, big and violent
You're like a thing that's big, big and violent.
A world that's big and violent


E|---------6---------------6-------|---------3--------------0-------|
B|-----4-----4---4-----4-----4---4-|-----1-----1---1----1-----1---1-|
G|-------0-----0---------0-----0---|-------0-----0--------2-----2---|
D|---5---------------5-------------|---2--------------2-------------|
A|-6---------------6---------------|-3---------------0--------------|
E|---------------------------------|--------------------------------|



E|-----------------------------------------3-----5----------|
B|-----5-7-8-8-7/8/0--3/5555555/3/0-------------------------|
G|----------------------------------5--4/5---4/5------------|
D|--2-------------------------------5-----------------------|
A|--2-------------------------------3-----------------------|
E|--0-------------------------------------------------------|x4

A world that's big and violent

E|----------------------------------------------------------------0---7---0---0---0---0---|
B|----------------------------------------------------------------0---7---8---5---0---5---|
G|----------------------------------------------------------------9---7---9---6---9---5---|
D|---------9--7---------9--7------0000-2-----0---0-2------0-------9---9---9---6---9---5---|
A|----2/7----------2/7-------------------4-2---2-----4--2---2-----7---9---7---4---7---3---|
E|--0-------------------------------------------------------------0---7---0-------0-------|


It's not exactly the right way to play it but it sounds good.


Pre-Chorus

E|--2-----3-----|
B|--0-----1-----|
G|--2-----0-----|
D|--0-----2-----|
A|--2-----0-----|
E|--------------|x2

When you're not feelin' again
The world's not too much


Chorus

E|--2-----0-----2-----3-----3-----|x2
B|--0-----1-----0-----1-----3-----|
G|--2-----0-----2-----0-----0-----|
D|--0-----2-----0-----2-----0-----|
A|--0-----0-----0-----3-----2-----|
E|--2-----------2-----------3-----|

Take the world upon your shoulders
Take the world upon your shoulders
And burn, burn, burn, burn, burn
Take the world upon your shoulders
Take the world upon your shoulders
Take the world upon your shoulders
Comments