Silverchair - Without You Chords & Tabs

 

Without You Chords & Tabs

Silverchair Chords & Tabs

Version: 6 Type: Tab 0 ratings
1 star 2 stars 3 stars 4 stars 5 stars
comments

Without You Tab

hi everyone,this is my first tab so i hope you will like,all the songs
titiled "Without you" is lower tunning and DADdd tune so i decide to tab it
on a DROP D Tunning,i hope you will like it!.

BAND:SIlverchair
TITLE:Without You
ALBUM:Diorama
TABBED BY:Mathew Alibangbang a.k.a RoCk3r_GuItArIsT

DROP D Tunning
DADGBE


InTRO/VERSE
|--------------------------------------------------
|--------------------------------------------------
|-6-6-6-6-6-6-6-----5-5-5-5-5-5-5------------------
|-6-6-6-6-6-6-6-----5-5-5-5-5-5-5------------------
|-4-4-4-4-4-4-4-----3-3-3-3-3-3-3------------------
|--------------------------------------------------

Pre-chorus
(i dnt know if this is right)
|---------------------------------------------------------------
|----4--------4----------5----------5--------2---------2--------
|------0--------0----------0----------0--------3---------3------
|--4----4----4----4----5-----5----5----5---------3---------3----
|-0---------0---------0---------0----------1---------1----------
|---------------------------------------------------------------

|---------------------------------------------------------------
|---------------------------------------------------------------
|-3-3-3-3-3-----------------------------------------------------
|-3-3-3-3-3--------------11-11-11-11-11-11-11-11-11-------------
|-1-1-1-1-1--/-----------x--x--x--x---x-x---x-x---x-------------
|------------------------x--x--x--x---x-x---x-x---x-------------
[ Tab from: http://www.guitartabs.cc/tabs/s/silverchair/without_you_tab_ver_6.html ]
Chorus
|---------------------------------------------------
|---------------------------------------------------
|-6-6-6-6-------------------------------------------
|-6-6-6-6---6-6-6-6--4-4-4-4--6-6-6-6---------------
|-4-4-4-4---6-6-6-6--4-4-4-4--6-6-6-6---------------
|-----------6-6-6-6--4-4-4-4--6-6-6-6---------------

|---------------------------------------------
|---------------------------------------------
|-3-3-3-3-3-----------------------------------
|-3-3-3-3-3--4-4-4-4--------------------------
|-1-1-1-1-1--4-4-4-4--------------------------
|------------4-4-4-4--------------------------
"Wihtout You"

Then Repaeat Verse until you step on this part

Strum Part
BRIDGE:
|----------------------------------------------------------
|----------------------------------------------------------
|-3-3-3-3-3---------------------6-6-6-6-6------------------
|-3-3-3-3-3--6-6-6-6---4-4-4-4--6-6-6-6-6------------------
|-1-1-1-1-1--6-6-6-6---4-4-4-4--4-4-4-4-4------------------
|------------6-6-6-6---4-4-4-4-----------------------------
"Feels like the wind blows"


Outro
|-4-6-4-6-4-|-----------|-----------|-------------
|-6-6-6-6-6-|-6-7-6-7-6-|-4-6-4-6-4-|-6-7-6-7-----
|-6-6-6-6-6-|-6-6-6-6-6-|-6-6-6-6-6-|-6-6-6-6-----
|-0-0-0-0-0-|-0-0-0-0-0-|-0-0-0-0-0-|-0-0-0-0-----
|-0-0-0-0-0-|-0-0-0-0-0-|-0-0-0-0-0-|-0-0-0-0-----
|-----------------------|-----------|-------------


|-------------------|------------------------------------
|-------------------|------------------------------------
|-------------------|------------------------------------
|-4-4-4-4---8-8-8-8-|-1h2-1h2-0-8-8-8-8--1-1-1-----------
|-4-4-4-4---8-8-8-8-|-1h2-1h2-0-8-8-8-8--1-1-1-----------
|-4-4-4-4---8-8-8-8-|-1h2-1h2-0-8-8-8-8--1-1-1-----------


Well there you go i hope you will like it
e-mail me:rock3r_guitarist@yahoo.com,if you have any question
See yah!
Comments