Silverchair - Without You Chords & Tabs

 

Without You Chords & Tabs

Silverchair Chords & Tabs

Version: 4 Type: Tab 0 ratings
1 star 2 stars 3 stars 4 stars 5 stars
comments

Without You Tab

   
Tune down 1/2 Step
Tuning: D, A, D, A, D, D


Intro / Verse

d||-0---------0---||
D||-0---------0---||
A||-0---------4---||
D||-7---------7---||
A||-5---------5---||
D||-0---------0---||

Miles away, theres...

Prelude

Guitar 1

d||-0---0---0---0--||
D||-0---0---0---0--||
A||-0---0---4---0--||
D||-2---2---4---0--||
A||-0---0---2---5--||
D||-------------5--||


Guitar 2

d||-------------------------------------------||
D||------7---------7-----------0---------0----||
A||--------7---------7-----------0---------0--||
D||-------------------------------------------||
A||---7---------7------------9---------5------||
D||-7---------7------------9---------5--------||

Before Chorus

d||---------------------||
D||---------------------||
A||--5---7----10---12---||
D||---------------------||
A||--5---7----10---12---||
D||---------------------||

Chorus X3               4th time

d||-0---0---0---0--||   ||-0-----0--||
D||-0---0---0---0--||   ||-0-----0--||
A||-7---7---5---7--||   ||-4-----5--||
D||-7---0---0---0--||   ||-4-----0--||
A||-5---7---5---7--||   ||-2-----5--||
D||-----7---5---7--||   ||-------5--||

Before 2nd Verse

d||-0---------0---||
D||-0---------0---||
A||-0---------4---||
D||-7---------7---||
A||-5---------5---||
D||-0---------0---||


Verse

[ Tab from: http://www.guitartabs.cc/tabs/s/silverchair/without_you_tab_ver_4.html ]
d||-0---------0---||
D||-12--------11--||
A||-0---------0---||
D||---------------||
A||---------------||
D||---------------||

Tele........phone

Verse

d||-0---------0---||
D||-0---------0---||
A||-0---------4---||
D||-7---------7---||
A||-5---------5---||
D||-0---------0---||


Bridge

d||-0---0---0---0--||
D||-0---0---0---0--||
A||-0---7---5---5--||
D||-x---0---0---x--||
A||-9---7---5---5--||
D||-9---7---5------||


Last Part

d||-0--0--0--0--0----0--0--0--0--0----0--0--0--0--0----0--0--0--0--0-||
D||-7--9--7--9--7----4--5--4--5--4----2--4--2--4--2----4--5--4--5--4-||
A||-0--0--0--0--0----0--0--0--0--0----0--0--0--0--0----0--0--0--0--0-||
D||------------------------------------------------------------------||
A||------------------------------------------------------------------||
D||------------------------------------------------------------------|| 

d||---0---0-0--------0---x----------------------0-------------||
D||---0---0-0--------0---x----------------------0-------------||
A||----------------------x----------------------4-------------||
D||---5---5-5--------9---x----------------------4-------------||
A||---5---5-5--------9---x---2--4--2--4--2--0---2---2--3------||
D||---5---5-5--------9---x---2--4--2--4--2--0-------2--3------|| 

Last time

d||----------------------||
D||----------------------||
A||--------------------7-||
D||--------------------7-||
A||-2--3--0--2-3--5-5--5-||
D||-2--3--0--2-3--5-5----||
Comments