Silverchair - Without You Chords & Tabs

 

Without You Chords & Tabs

Silverchair Chords & Tabs

Version: 1 Type: Chords 0 ratings
1 star 2 stars 3 stars 4 stars 5 stars
comments

Without You Chords

   
-------------------------------------------------------------------------------
			   WITHOUT YOU - Silverchair 
-------------------------------------------------------------------------------

Tabbed by: Daniel Portelli

Drop to D Tuning 

    D     Dmaj7
play with the song to workout stumming .. compound time = 6/8
e|--2--|--2--|
B|--3--|--2--|
G|--2--|--2--|
D|-----|-----|
A|-----|-----|
D|-----|-----|

Bridge: fingerpick these chords a bit
| A7 | A6 | Bm | G |
last time: | D D/E | D/G D/A |
[ Tab from: http://www.guitartabs.cc/tabs/s/silverchair/without_you_crd.html ]
Chorus:
| D A | G A |  x2
Chorus 1: | Bm | G | x2
Chorus 2: | Bm | G | F#m | G |

MID:
| Bm A | G D |

Best part in the song..
      use pinky in the 1st, 2nd and 4th section below
e|--5-7-5-7-5--|-------------|-----------|-----------|
B|--7-7-7-7-7--|--7-8-7-8-7--|-5-7-5-7-5-|-7-8-7-8-7-|
G|--7-7-7-7-7--|--7-7-7-7-7--|-7-7-7-7-7-|-7-7-7-7-7-|
D|-------------|-------------|-----------|-----------|
A|-------------|-------------|-----------|-----------|
D|-------------|-------------|-----------|-----------|

e|----------|-------------------------|
B|----------|-------------------------|
G|----------|-------------------------|
D|--5---9---|--2--4--2--4--0--9--x--2-|  x = palm mute
A|--5---9---|--2--4--2--4--0--9--x--2-|
D|--5---9---|--2--4--2--4--0--9--x--2-|
Comments