Silverchair - Without You Chords & Tabs

 

Without You Chords & Tabs

Silverchair Chords & Tabs

Version: 1 Type: Bass Tab 0 ratings
1 star 2 stars 3 stars 4 stars 5 stars
comments

Without You Bass Tab

#----------------------------------PLEASE NOTE---------------------------------#
#This file is the author's own work and represents their interpretation of the-#
#song. You may only use this file for private study, scholarship, or research.-#
#------------------------------------------------------------------------------#

Silverchair - Without You


Tuning: Drop E string to C#

Bit of a difficult one. The timimg is hard to get at first
and the tuning needs to be spot on but it sounds awesome
when you get it right.

Intro:
G  |------|------|------|------|
D  |------|------|------|------|
A  |------|------|------|------|
C# |0--0--|0--0--|0--0--|0--0--|

1st Verse:
G  |------|------|------|------|------|------|------|------|
D  |------|------|------|------|------|------|------|------|
A  |------|------|------|------|------|------|------|------|
C# |0--0--|0--0--|0--0--|0--0--|0--0--|0--0--|0--0--|0--0--|

Pre-Chorus:
G  |------|------|------|------|------|------|------|------|
D  |------|------|------|------|------|------|------|------|
A  |------|------|------|------|------|------|------|------|
C# |7--7--|9--5--|7--7--|9--5--|5--5--|5--4--|2--5--|7-----|

Chorus:
G  |------|------|------|------|------|------|
D  |------|------|------|------|------|------|
A  |------|------|------|------|------|------|
C# |0--7--|5--7--|0--7--|5--7--|0--7--|5--7--|

G  |------|------|------|------|------|------|------|------|
D  |------|------|------|------|------|------|------|------|
A  |------|------|------|------|------|------|------|------|
C# |9-----|5-----|9-----|5-----|0--0--|0--0--|0--0--|0--0--|

2nd Verse: (there is a pause at the start of the 2nd verse
           the bass comes in as he says "socially scared...")  
G  |------|------|------|------|------|------|------|------|
D  |------|------|------|------|------|------|------|------|
A  |------|------|------|------|------|------|------|------|
C# |------|------|0--0--|0--0--|0--0--|0--0--|0--0--|0--0--|
[ Tab from: http://www.guitartabs.cc/tabs/s/silverchair/without_you_btab.html ]
Pre-Chorus:
G  |------|------|------|------|------|------|------|------|
D  |------|------|------|------|------|------|------|------|
A  |------|------|------|------|------|------|------|------|
C# |7--7--|9--5--|7--7--|9--5--|5--5--|5--4--|2--5--|7-----|

Chorus: (1st Variation)
G  |------|------|------|------|------|------|
D  |------|------|------|------|------|------|
A  |------|------|------|------|------|------|
C# |0--7--|5--7--|0--7--|5--7--|0--7--|5--7--|

G  |------|------|------|------|
D  |------|------|------|------|
A  |------|------|------|------|
C# |9-----|5-----|9-----|5-----|

Bridge:
G  |------|------|------|------|------|------|------|------|
D  |------|------|------|------|------|------|------|------|
A  |------|------|------|------|------|------|------|------|
C# |9--7--|5--7--|9--7--|5--7--|9--7--|5--7--|9--7--|5--7--|

G  |------|------|------|------|------|
D  |------|------|------|------|------|
A  |------|------|------|------|------|
C# |9--7--|5--7--|9--7--|5--5--|5--5--|

Chorus: (2nd Variation)
G  |------|------|------|------|------|------|
D  |------|------|------|------|------|------|
A  |------|------|------|------|------|------|
C# |0--7--|5--7--|0--7--|5--7--|0--7--|5--7--|

G  |------|------|------|------|------|------|------|------|
D  |------|------|------|------|------|------|------|------|
A  |------|------|------|------|------|------|------|------|
C# |9-----|5-----|9-----|5-----|9-----|5-----|9-----|5-----|

Outro:
G  |------|------|------|------|------|
D  |------|------|------|------|------|
A  |------|------|------|------|--1---|
C# |------|------|5-5-7-|24-24-|0-----|

G  |------|------|------|------|------|
D  |------|------|------|------|------|
A  |------|------|------|------|--1---|
C# |0-----|0-----|5-5-7-|24-24-|0-----|

G  |------|------|------|------|------|
D  |------|------|------|------|------|
A  |------|------|------|------|--1---|
C# |0-----|0-----|5-5-7-|24-24-|0-----|

G  |------|------|------|------|------|------|------|
D  |------|------|------|------|------|------|------|
A  |------|------|------|------|--1---|------|------|
C# |0-----|0-----|5-5-7-|24-24-|0-----|5--33-|5-0---|


================================================================================
Comments