Silverchair - Wasted Chords & Tabs

 

Wasted Chords & Tabs

Silverchair Chords & Tabs

Version: 1 Type: Tab 0 ratings
1 star 2 stars 3 stars 4 stars 5 stars
comments

Wasted Tab

   
Cover of Black Flags "Wasted"

(0:00) (ben speaking and feedback)

(0:10)
e-------------------------------------------------------------------|
b-------------------------------------------------------------------|
g-5-5-5-5-5-5-5-5-5-5-5-5-5-5-5-5-5---------------------------------|
d-5-5-5-5-5-5-5-5-5-5-5-5-5-5-5-5-5-8-8-8-8-8-8-8-8-6-6-6-6-5-5-5-5-|
a-3-3-3-3-3-3-3-3-3-3-3-3-3-3-3-3-3-8-8-8-8-8-8-8-8-6-6-6-6-5-5-5-5-|
e-----------------------------------6-6-6-6-6-6-6-6-4-4-4-4-3-3-3-3-|
Hey!

e---------------------------------|
b---------------------------------|
g-o-----------------------------o-|
d-o--7-7-7-7-7-10--7-7-7-7-7-8--o-|
a----7-7-7-7-7-10--7-7-7-7-7-8----|
e----5-5-5-5-5-8---5-5-5-5-5-6----|

(0:25)
e-------------------------------------------------------------------|
b-------------------------------------------------------------------|
g-5-5-5-5-5-5-5-5-5-5-5-5-5-5-5-5-5---------------------------------|
d-5-5-5-5-5-5-5-5-5-5-5-5-5-5-5-5-5-8-8-8-8-8-8-8-8-6-6-6-6-5-5-5-5-|
a-5-5-5-5-5-5-5-5-5-5-5-5-5-5-5-5-5-8-8-8-8-8-8-8-8-6-6-6-6-5-5-5-5-|
e-----------------------------------6-6-6-6-6-6-6-6-4-4-4-4-3-3-3-3-|
I was so wasted
[ Tab from: http://www.guitartabs.cc/tabs/s/silverchair/wasted_tab.html ]
e---------------------------------|
b---------------------------------|
g-o-----------------------------o-|
d-o--7-7-7-7-7-10--7-7-7-7-7-8--o-|
a----7-7-7-7-7-10--7-7-7-7-7-8----|
e----5-5-5-5-5-8---5-5-5-5-5-6----|
I was so wasted
I was a hippie
I was a burnout
I was a dropout I was out of my head
I was a surfer
I had a skateboard
I was so heavy man lived on the strand

(0:41)
e-------------------------------------------------------------------|
b-------------------------------------------------------------------|
g-5-5-5-5-5-5-5-5-5-5-5-5-5-5-5-5-5---------------------------------|
d-5-5-5-5-5-5-5-5-5-5-5-5-5-5-5-5-5-8-8-8-8-8-8-8-8-6-6-6-6-5-5-5-5-|
a-5-5-5-5-5-5-5-5-5-5-5-5-5-5-5-5-5-8-8-8-8-8-8-8-8-6-6-6-6-5-5-5-5-|
e-----------------------------------6-6-6-6-6-6-6-6-4-4-4-4-3-3-3-3-|
I was so wasted

e---------------------------------|
b---------------------------------|
g-o-----------------------------o-|
d-o--7-7-7-7-7-10--7-7-7-7-7-8--o-|
a----7-7-7-7-7-10--7-7-7-7-7-8----|
e----5-5-5-5-5-8---5-5-5-5-5-6----|
I was so fucked up
I was so messed up
I was so screwed up I was out of my head
I was so jacked up
I was so drunk up
I was so knocked out I was out of my head

(0:57)
e-------------------------------------------------------------------|
b-------------------------------------------------------------------|
g-5-5-5-5-5-5-5-5-5-5-5-5-5-5-5-5-5---------------------------------|
d-5-5-5-5-5-5-5-5-5-5-5-5-5-5-5-5-5-8-8-8-8-8-8-8-8-6-6-6-6-5-5-5-5-|
a-5-5-5-5-5-5-5-5-5-5-5-5-5-5-5-5-5-8-8-8-8-8-8-8-8-6-6-6-6-5-5-5-5-|
e-----------------------------------6-6-6-6-6-6-6-6-4-4-4-4-3-3-3-3-|
I was so wasted
I was wasted

Thats 100% correct. Im sure of it.
Comments