Silverchair - Wasted Fix Me Chords & Tabs

 

Wasted Fix Me Chords & Tabs

Silverchair Chords & Tabs

Version: 1 Type: Tab 0 ratings
1 star 2 stars 3 stars 4 stars 5 stars
comments

Wasted Fix Me Tab



  Artist:SILVERCHAIR
  Song:WASTED/FIX ME(Black Flag cover)
  Album:BEST OF: vol.1
  Tabbed By: Simon Robson

  Standard Tuning/Distortion

  These first bits are the "wasted" part,and the next is the "fix me"
  part. These songs are really easy to play because they only have two 
  different parts so if you can't play them you suck big time,haha.



(Intro & Chorus)

|---------------------------------------------------------------------
|---------------------------------------------------------------------
|-5-5-5-5-5-5-5-5-5-5-5-5-5-5-5-5-5-5---------------------------------
|-5-5-5-5-5-5-5-5-5-5-5-5-5-5-5-5-5-5-8-8-8-8-8-8-8-8-6-6-6-6-5-5-5-5-
|-3-3-3-3-3-3-3-3-3-3-3-3-3-3-3-3-3-3-8-8-8-8-8-8-8-8-6-6-6-6-5-5-5-5-
|-------------------------------------6-6-6-6-6-6-6-6-4-4-4-4-3-3-3-3-


(Verses)

|-------------
|-------------
|-----------5- (repeat x8)
|-5-5-5-5-5-5-
|-5-5-5-5-5-3-
|-3-3-3-3-3---

(ends on)
[ Tab from: http://www.guitartabs.cc/tabs/s/silverchair/wasted_fix_me_tab.html ]
|---
|---
|---
|-5-
|-5-
|-3-

Then the song goes into "Fix Me"



(Verses)

|---------------------------------
|---------------------------------
|---------------------------------   (Repeat x4)
|-7-7-7-7-9-9-9-9-7-7-7-7-10-x-10-
|-7-7-7-7-9-9-9-9-7-7-7-7-10-x-10-
|-5-5-5-5-7-7-7-7-5-5-5-5--8-x--8-


(Chorus)

|-----------------------------
|-----------------------------
|-----------------------------
|-7-7--9-9--9-7-5-7-9-7-5-7-5-
|-5-5--7-7--7-5-3-5-7-5-3-5-3-
|-----------------------------


(Ends with)
|--------------------------------
|--------------------------------
|--------------------------------  
|-7-7--9-9--9-7-5-7-9-7-5-7-5--7-
|-5-5--7-7--7-5-3-5-7-5-3-5-3--7-
|------------------------------5- (add pick scrapes after last chord)

If you want me to tab anymore Silverchair stuff,because i have all their
guitar tab books and I know how to play all their b-sides,so e-mail me
at Daniel_Johns69@hotmail.com 

Comments