Silverchair - Untitled Chords & Tabs

 

Untitled Chords & Tabs

Silverchair Chords & Tabs

Version: 2 Type: Tab 0 ratings
1 star 2 stars 3 stars 4 stars 5 stars
comments

Untitled Tab

Untitled by Silverchair
Tuning = drop d

Verse - clean
e|------------------------------------------------------------------|
B|---------------------1-----1--------------------------------------|
G|-----10------10-------0-----0----10-------10------10------10------|
D|-------10------10---0--0--0--0-----10-------10------10------10----|
A|----8----8--8----8--------------8----10--8----8--8----8--8----8---|
D|---0-------8-------2-----3-----8--------8-------8-------8---------|

Chorus
|---0--0-0-0-0--0-0-0-0--0-0-0-0--0-0-0---|
|---0--0-0-0-0--0-0-0-0--0-0-0-0--0-0-0---|
|---2--2-2-2-4--4-4-4-4--4-4-4-2--2-2-2---|
|---2--2-2-2-4--4-4-4-5--5-5-5-3--3-3-3---|
|---0--0-0-0-0--0-0-0-5--5-5-5-3--3-3-3---|
|---------------------5--5-5-5-3--3-3-3---|
[ Tab from: http://www.guitartabs.cc/tabs/s/silverchair/untitled_tab_ver_2.html ]
Verse 2
|-------------------------------------------------------------------|
|---------------------1-----1---------------------------------------|
|-----10------10-------0-----0----10-------10-----------------------|
|-------10------10---0--0--0--0-----10-------10--8-0-0-0--8-0-0-0---|
|----8----8--8----8--------------8----10--8----8-8-0-0-0--8-0-0-0---|
|---0-------8-------2-----3-----8--------8-------8-0-0-0--8-0-0-0---|
                                                    |->distortion on
Interlude
|----------------------------------------------|
|----------------------------------------------|
|---10--------------------------------9----10--|
|---10--------------------------------9----10--|
|---8---------------------------------7----8---|
|---8---------------------------------7----8---|

bridge  (piano)
|----------------|-------|
|---10--8---12---|-10--8-|
|---9---7---11---|-9---7-|
|---7---5---9----|-7---5-|
|---7---5---9----|-7---5-|
|---7---5---9----|-7---5-|

Heavy part
|-----------------------------------------------|
|-----------------------------------------------|
|-------5---------------------------------------|
|-0-0-0-5-4-4-4-8-0-0-0-8-0-0-0-----------------|
|-0-0-0-3-4-4-4-8-0-0-0-8-0-0-0-----------------|
|-0-0-0---4-4-4-8-0-0-0-8-0-0-0-----------------|

if you have any questions or comments email me at 
silverchair_surfing_bird@hotmail.com



_________________________________________________________________
Get your FREE download of MSN Explorer at http://explorer.msn.com/intl.asp



Comments