Silverchair - Untitled Chords & Tabs

 

Untitled Chords & Tabs

Silverchair Chords & Tabs

Version: 1 Type: Tab 0 ratings
1 star 2 stars 3 stars 4 stars 5 stars
comments

Untitled Tab

-----1--------1---------1------------1----1-----1------1--
-------1--------1---------1-----1---1-1--1-1---1--1---1--1
----------------------------------------------------------
-----------3---------3--------3---3-----3----3------3-----
--0------1------------------1-----------------------------
0-----------------0---------------------------------------

[ Tab from: http://www.guitartabs.cc/tabs/s/silverchair/untitled_tab.html ]
------------------------------------
------------------------------------
------------------------------------
--1--1-1--3--3-3--4--4-4--3-3-3-----
--1--1-1--3--3-3--4--4-4--2-2-2-----
------------------------------------
------------------------------------


------------------------------------------------------------------------------------
------------------------------------------------------------------------------------
--10--10-10--3--3-3--9--9-9--10--10-10--10--10-10--10-10-10-------------------------
--10--10-10--3--3-3--9--9-9--10--10-10--10--10-10--10-10-10--0--0-0-0--0--0-0-0--0--
--8---8--8---1--1-1--7--7-7--8---8--8---8---8--8---8--8--8---0--0-0-0--0--0-0-0--0--
-------------------------------------------------------------0--0-0-0--0--0-0-0--0-------
Comments