Silverchair - Undecided Chords & Tabs

 

Undecided Chords & Tabs

Silverchair Chords & Tabs

Version: 1 Type: Tab 0 ratings
1 star 2 stars 3 stars 4 stars 5 stars
comments

Undecided Tab

   
#----------------------------------PLEASE NOTE---------------------------------#
#This file is the author's own work and represents their interpretation of the #
#song. You may only use this file for private study, scholarship, or research. #
#------------------------------------------------------------------------------##
UNDECIDED by silverchair
Transcibed by Braamo (bpsmith@socs.uts.edu.au)

Drop D Tuning

There are various rhythms to the main riff in the song,
but if you stick by this and then adapt it to the 
drumbeat, you won't go wrong:

E-----------------------------|
B-----------------------------|
G-----------------------------|  * = silence
D---2__3--2--*--2--0--2-*-----|  _ = slide
A---2__3--2--*--2--0--2-*-----|
D---2__3--2--*--2--0--2-*-----|

[ Tab from: http://www.guitartabs.cc/tabs/s/silverchair/undecided_tab.html ]
Change at end of verse:

G / / / A / / Bb

-----
Chorus:
Chords Required:
D  E  F  F# G  A  Bb B
E----------------------0--1--2---------------------
B----------------------2--3--4---------------------
G----------------------2--3--4---------------------
D-------0--2--3--4--5--2--3--4---------------------
A-------0--2--3--4--5--0--1--2---------------------
D-------0--2--3--4--5------------------------------


-----

Bridge:

F# / / / B / D E    x 4

-----

End:

E---------------------------|
B---------------------------|
G---------------------------|  x 3
D--2--0--2--0--2--3--2--0---|
A--2--0--2--0--2--3--2--0---|then E chord (222xxx) to finish
D--2--0--2--0--2--3--2--0---|


Braamo

(bpsmith@socs.uts.edu.au)
Comments