Silverchair - Trash Chords & Tabs

 

Trash Chords & Tabs

Silverchair Chords & Tabs

Version: 1 Type: Bass Tab 0 ratings
1 star 2 stars 3 stars 4 stars 5 stars
comments

Trash Bass Tab

SILVERCHAIR-TRASH BASS TAB
Tabbed by  Mr. Green (godric_era@hotmail.com)

Tune down E-string down one and a  steps to C-flat.

(/) Slide up

Notes:
This song is from Silverchair's "Rarities" album. This is my first piece of tabbing.
I am a big fan of them, and am extremely sure that this tab is pretty accurate; however
there may be many mistakes in it, esp. with timing, cause I suck at that. Riff 2 might
not be entirely correct either, but this is basically just a guide. It's a pretty simple
song that you can figure out yourself.


Daniel: "Let's play something extraordinary."

Piano intro (0:06)

Riff 1 (0:19)
  G:-----------------------------------------------------|
  D:-----------------------------------------------------|
  A:-54-------------54-----------------------------------| x2
 C#:---0-2-02-02-20---0-2-02-02-2/6----------------------|

Two drum high-hats (0:31)

Riff 2
  G:----------------------------------------------------|
  D:----------------------------------------------------|
  A:-54-------------54----------------------------------|
 C#:---0-2-02-02-20---0-2-02-02-0000--------------------|

Then Riff 1 once

Eight Bass Drums(0:44)

Guitar Riff

Voice: "One, Two, Three, Four!"

Riff 3(0:53)
  G:----------------------------------------------------|
  D:----------------------------------------------------|
  A:----------------------------------------------------|x8
 C#:--0055336600113344----------------------------------|

"Welcome! Nothing short of anarchy!
So hard to find out who you wanna be!
Welcome! Nothing short of anarchy!
So hard to find out who you wanna be!
Arr!"
[ Tab from: http://www.guitartabs.cc/tabs/s/silverchair/trash_btab.html ]
Riff 4 (1:22)
  G:----------------------------------------------------|
  D:----------------------------------------------------|
  A:----------------------------------------------------|x5
 C#:-00553366-------------------------------------------|


  G:-------------------------------------------------------|
  D:-------------------------------------------------------|
  A:-------------------------------------------------------|
 C#:-00-00-00-00-00-00-00-00------------------------ (1:34-|

Then Riff 2 once(1:40)
"I cannot find what you needed- oh to be a double,
A big pill, but you know that you need a poison."

Then Riff 1 once(1:47)
"Open you need it but I returned the point of acceptance,
How brave, your parades never do much!"

 Riff 5 (1:53)
  G:----------------------------------------------------|
  D:----------------------------------------------------|
  A:----------------------------------------------------|x3
 C#:-00-011-133-344--4005511----------------------------|
                     "Violence!
                      Hopeless fight!
                      Call it straight!"

  G:----------------------------------------------------|
  D:----------------------------------------------------|
  A:----------------------------------------------------|
 C#:-00-011-133-344--40033551100335511------------------|
                     "Big black steel cap dealt rejection!"

Then Riff 3 four times (2:13)
"Yeah, hey hey hey hey!"

Outro
  G:-----------------------------------------------------|
  D:-----------------------------------------------------|
  A:-----------------------------------------------------|
 C#:-0---------------------------------------------------| (let ring)
 "yah, urggh!"

Guitar and drums

Then strike bottom string in a staccato note (2:41)


Feel free to write me at godric_era@hotmail.com if you have any comments or corrections for this tab.
Comments