Silverchair - Tomorrow Chords & Tabs

 

Tomorrow Chords & Tabs

Silverchair Chords & Tabs

Version: 8 Type: Tab

Tomorrow Tab

Tomorrow (EP version)
Silverchair

From the Tomorrow EP

Tabbed by: Luke Marsh
Tuning: Standard (EADGBE)


Intro (clean)
E|-------0-----------0----------3p2-------------------|
B|---------2-----------2------------3-----------------|
G|------------2-----------2---2--------2----0---0-----|
D|----2------2-----2-----2---0-0------0----2---0------|
A|--0------------0------------------------3---2----2--|
E|------------------------------------------------3---|

Verse
|-------0------3-3------2--2-2--------|
|--2-2---2-----3-3------3--3-3--------|
|--2-2-----2---0-0--x-x-2--2-2--------|
|--2-2----2----0-0--x-x---------------|
|--0-0-0----0--2-2--x-x--------3-0----|
|--------------3-3-----------------3--|
       ^^^^^^
(This part is quite faint)

On the 6th time of the Verse, the last D chords are where it goes distortion from there...

Pre-Chorus (distortion)
(1st gtr.)
|------------------------------------|
|------------------------------------|
|--2-2-----2-2----4-4---5-5--5-5--5--|
|--2-2-----2-2----4-4---5-5--5-5--5--|
|--0-0-0-0-0-0-0--2-2-x-3-3--3-3--3--|
|------------------------------------|
|(2nd gtr.)
|------------------------------------|
|--------------------------------5\--|
|--------------------------------5\--|
|-----------------------------5h7----|
|--------------------------5h7-------|
|------------------------------------|

Pre-Chorus 2 (distortion)
(1st gtr.)
|------------------------------------|
|----------3p2-----------------------|
|--2-2--------2---4-4---5-5--5-5--5--|
|--2-2------------4-4---5-5--5-5--5--|
|--0-0-0-0------0-2-2-x-3-3--3-3--3--|
|------------------------------------|
|(2nd gtr.)
|------------------------------------|
|--------------------------------5\--|
|--------------------------------5\--|
|-----------------------------5h7----|
|--------------------------5h7-------|
|------------------------------------|

Play Pre-Chorus 1 only once, then the next 3 times Pre-Chorus 2...
[ Tab from: http://www.guitartabs.cc/tabs/s/silverchair/tomorrow_tab_ver_8.html ]
Interlude (Clean)
(1st Gtr.)
|--5-5---10--12p10---------------8--8----10--12p10---------------|
|--5-5-x-10--------10-12p10------8--8--x-10--------10-12p10------|
|--6-6-x-11-----------------12\--9--9--x-11-----------------12\--|
|--7-7-x-12----------------------10-10-x-12----------------------|
|----------------------------------------------------------------|
|----------------------------------------------------------------|
|(2nd Gtr.)
|----------------------------------------------------------------|
|----------------------------------------------------------------|
|--7b-7rb-5-7-5------------------5-4-5---------------------------|
|---------------7----------------------5/7-----------------------|
|----------------------------------------------------------------|
|----------------------------------------------------------------|

On the second run through hold an A note (7th fret on the D string) that fades in and out at 1:22...
Distortion comes in on the last 2 chord bits...

Chorus (distortion)
|----------------------------------------------|
|----------------------------------------------|
|-----------7--7-7-7-x-x-5-5-x-x-7--7-7-7-x-x--|
|--7-7-x-x--7--7-7-7-x-x-5-5-x-x-7--7-7-7-x-x--|
|--7-7-x-x--5--5-5-5-x-x-3-3-x-x-5--5-5-5-x-x--|
|--5-5-x-x-------------------------------------|

On second time hold the last C chord...

Chorus 2 (distortion)           1st ending
|------------------------------|-----------------------|
|------------------------------|-----------5-5--5-5-5--|
|--2--2--x-x--7--7-7--7-7-7-7--|--5-5-x-x--7-7--7-7-7--|
|--2--2--x-x--7--7-7--7-7-7-7--|--5-5-x-x--7-7--7-7-7--|
|--0--0--x-x--5--5-5--5-5-5-5--|--3-3-x-x--5-5--5-5-5--|
|-------------5--5-5--5-5-5-5--|--3-3------5-5--5-5-5--|

  2nd ending
E|----------------------------|
A|-3-3-3-3--5-5-5-5--5-5------|
D|-5-5-5-5--7-7-7-7--7-7--x-x-|
G|-5-5-5-5--7-7-7-7--7-7--x-x-|
B|-3-3-3-3--5-5-5-5--5-5--x-x-|
E|-3-3-3-3--5-5-5-5--5-5------|

Solo (distortion & wah-wah)
|---------------------------------------------------------------------------------------------------------|
|--------------------8--------------------------------------------------------------------8---------------|
|--5b--------5-7-5-7b-7rb-5-7b-7pb-7rb--7b--5-7-5--------5-7-5------5b---5b---5b---5b-7-7b--7rb-5-7-5-----|
|-----7-5-7---------------------------------------7--5-7--------5-7----7----7----7--------------------7~--|
|---------------------------------------------------------------------------------------------------------|
|---------------------------------------------------------------------------------------------------------|

|-------------------------------------------------------------------------|
|------8----------------8--8----------------------------------------------|
|--5-7b-7rb-5--7p5--5-7b-7b-7rb-5-7b-5-7----------5-7b-7b-7b-7b-7rb-5-----|
|-----------------7----------------------7-5-7-7----------------------7~--|
|-------------------------------------------------------------------------|
|-------------------------------------------------------------------------|

That's basically all of it, you'll just have to listen to the song and figure out how many times you do
what and when and all that...
And REMEMBER: This is the  EP VERSION  of the song, it is quite different to the Album Version...


For any questions/comments, please email here: loop_de_luke@msn.com