Silverchair - Tomorrow Chords & Tabs

 

Tomorrow Chords & Tabs

Silverchair Chords & Tabs

Version: 6 Type: Tab 0 ratings
1 star 2 stars 3 stars 4 stars 5 stars
comments

Tomorrow Tab

   
-----------------------------------------------------------------------------
			   TOMORROW - SILVERCHAIR
-----------------------------------------------------------------------------
TABBED BY : SCreAm BLoOdY GoRE
Tuning:EADGBE (STANDARD)

THIS TAB DOES NOT INCLUDE THE STRUCTURE OF THE SONG BUT ALL THE SONG IS HERE.
NOTE: "D" MEANS DOWN STRUM AND "U" MEANS UP STRUM.
NOTE: "." MEANS PALM MUTE.
NOTE: SOLO WAS TRANSLATED FROM THE FROGSTOMP TAB BOOK (DONT EXPECT 100% RIGHT SOLO)

INTRO
e|-------0-------------0--------------3P2-----------------------------------|
B|---------2-------------2----------------3---------------------------------|
G|-------------2-------------0----2-----------2-----0-----0-----------------|
D|---2-------2-----2-------2----0---0-------0-----2-----0-------------------|
A|-0---0---------0---0--------------------------3-----2---------------------|
E|----------------------------------------------------------3---------------|


VERSE
   D U D D D U D U   D D U   D U 
e|-0-0-0-0-0-0-0-0---3-3-3---2-2--------------------------------------------|
B|-2-2-2-2-2-2-2-2---3-3-3---3-3--------------------------------------------|
G|-2-2-2-2-2-2-2-2---0-0-0---2-2--------------------------------------------|
D|-2-2-2-2-2-2-2-2---0-0-0---0-0--------------------------------------------|
A|-0-0-0-0-0-0-0-0---2-2-2---------3P0--------------------------------------|
E|-------------------3-3-3-------------3------------------------------------|
         
         .  .        .  .      .  .
e|--------------------------------------------------------------------------|
B|--------------------------------------------------------------------------|
G|-2--2--------2--2--------4-4------5----------5P0--------------------------|
D|-2--2--------2--2--------4-4------5------5H7------------------------------|
A|-0--0--0--0--0--0--0--0--2-2------3--5H7----------------------------------|
E|-------------------------2-2-0--0-3---------------------------------------|

         .  .        .  .
e|--------------------------------------------------------------------------|
B|--------------------------------------------------------------------------|
G|-2--2--------2--2--------4------------------------------------------------|
D|-2--2--------2--2--------4------------------------------------------------|
A|-0--0--0--0--0--0--0--0--2------------------------------------------------|
E|-------------------------2------------------------------------------------|


INTERLUDE
e|-5--5--10--12P10-------------------8--8--10--12P10------------------------|
B|-5--5--10---------10-12P10---------8--8--10---------10-12P10--------------|
G|-6--6--11-------------------11-----9--9--11-------------------11----------|
D|--------------------------------------------------------------------------|
A|--------------------------------------------------------------------------|
E|--------------------------------------------------------------------------|


CHORUS
   D U  D U  D U D U  D U  D U  D U  D U D U  D U
e|-5-5--X-X--5-5-5-5--X-X--3-3--X-X--5-5-5-5--X-X---------------------------|
B|-5-5--X-X--5-5-5-5--X-X--3-3--X-X--5-5-5-5--X-X---------------------------|
G|-6-6--X-X--7-7-7-7--X-X--5-5--X-X--7-7-7-7--X-X---------------------------|
D|-7-7--X-X--7-7-7-7--X-X--5-5--X-X--7-7-7-7--X-X---------------------------|
A|-7-7--X-X--5-5-5-5--X-X--3-3--X-X--5-5-5-5--X-X---------------------------|
E|-5-5--X-X--5-5-5-5--X-X--3-3--X-X--5-5-5-5--X-X---------------------------|

   D U  D U  D U D U  D U  D
e|-5-5--X-X--5-5-5-5--X-X--3------------------------------------------------|
B|-5-5--X-X--5-5-5-5--X-X--3------------------------------------------------|
G|-6-6--X-X--7-7-7-7--X-X--5------------------------------------------------|
D|-7-7--X-X--7-7-7-7--X-X--5------------------------------------------------|
A|-7-7--X-X--5-5-5-5--X-X--3------------------------------------------------|
E|-5-5--X-X--5-5-5-5--X-X--3------------------------------------------------|
   

CHORUS PLAYED 2ND TIME 
   D U  D U  D U D U  D U  D U  D U  D U D U  D U
e|-5-5--X-X--5-5-5-5--X-X--3-3--X-X--5-5-5-5--X-X---------------------------|
B|-5-5--X-X--5-5-5-5--X-X--3-3--X-X--5-5-5-5--X-X---------------------------|
G|-6-6--X-X--7-7-7-7--X-X--5-5--X-X--7-7-7-7--X-X---------------------------|
D|-7-7--X-X--7-7-7-7--X-X--5-5--X-X--7-7-7-7--X-X---------------------------|
A|-7-7--X-X--5-5-5-5--X-X--3-3--X-X--5-5-5-5--X-X---------------------------|
E|-5-5--X-X--5-5-5-5--X-X--3-3--X-X--5-5-5-5--X-X---------------------------|
[ Tab from: http://www.guitartabs.cc/tabs/s/silverchair/tomorrow_tab_ver_6.html ]
   D U  D U  D U D U  D U  D U D U  D U D U  D U D U 
e|-5-5--X-X--5-5-5-5--X-X--3-3-3-3--5-5-5-5--5-5-5-5------------------------|
B|-5-5--X-X--5-5-5-5--X-X--3-3-3-3--5-5-5-5--5-5-5-5------------------------|
G|-6-6--X-X--7-7-7-7--X-X--5-5-5-5--7-7-7-7--7-7-7-7------------------------|
D|-7-7--X-X--7-7-7-7--X-X--5-5-5-5--7-7-7-7--7-7-7-7------------------------|
A|-7-7--X-X--5-5-5-5--X-X--3-3-3-3--5-5-5-5--5-5-5-5------------------------|
E|-5-5--X-X--5-5-5-5--X-X--3-3-3-3--5-5-5-5--5-5-5-5------------------------|

   D U  D U  D U D U  D U  D U  D U  D U D U  D U
e|-5-5--X-X--5-5-5-5--X-X--3-3--X-X--5-5-5-5--X-X---------------------------|
B|-5-5--X-X--5-5-5-5--X-X--3-3--X-X--5-5-5-5--X-X---------------------------|
G|-6-6--X-X--7-7-7-7--X-X--5-5--X-X--7-7-7-7--X-X---------------------------|
D|-7-7--X-X--7-7-7-7--X-X--5-5--X-X--7-7-7-7--X-X---------------------------|
A|-7-7--X-X--5-5-5-5--X-X--3-3--X-X--5-5-5-5--X-X---------------------------|
E|-5-5--X-X--5-5-5-5--X-X--3-3--X-X--5-5-5-5--X-X---------------------------|

   D U  D U  D U D U  D U  D U D U D  U D U D U D U D
e|-5-5--X-X--5-5-5-5--X-X--3-3-3-3-3--5-5-5-5-5-5-5-5-----------------------|
B|-5-5--X-X--5-5-5-5--X-X--3-3-3-3-3--5-5-5-5-5-5-5-5-----------------------|
G|-6-6--X-X--7-7-7-7--X-X--5-5-5-5-5--7-7-7-7-7-7-7-7-----------------------|
D|-7-7--X-X--7-7-7-7--X-X--5-5-5-5-5--7-7-7-7-7-7-7-7-----------------------|
A|-7-7--X-X--5-5-5-5--X-X--3-3-3-3-3--5-5-5-5-5-5-5-5-----------------------|
E|-5-5--X-X--5-5-5-5--X-X--3-3-3-3-3--5-5-5-5-5-5-5-5-----------------------|


SOLO
e|--------------------------------------------------------------------------|
B|--5^----------------------------5-----------------------------------------|
G|--5^----------------------5--7--5-----------------------------------------|
D|----------7--5--7-----------7---------------------------------------------|
A|--------------------------------------------------------------------------|
E|--------------------------------------------------------------------------|

e|--------------------------------------------------------------------------|
B|-----8-7^-7---------------------------------------------------------------|
G|--7^---7^-7p5--7-7-7--7-7-77--5h7-----------------------------------------|
D|--------------------------------------------------------------------------|
A|--------------------------------------------------------------------------|
E|--------------------------------------------------------------------------|

e|--------------------------------------------------------------------------|
B|--------------------------------------------------------------------------|
G|-7^-7-----5h7--5^-----5---------------------------------------------------|
D|-------------------7--5--7--7---5h7---------------------------------------|
A|--------------------------------------------------------------------------|
E|--------------------------------------------------------------------------|

e|--------------------------------------------------------------------------|
B|--------------------------------------------------------------------------|
G|---------------5----------------------------------------------------------|
D|---------------5--7--7----------------------------------------------------|
A|--7\5--5--5/7-------------------------------------------------------------|
E|--------------------------------1/14\1-1-1--1-1---------------------------|

e|-10^--10^10--10^10--------------------------------------------------------|
B|-------------10^10--8--10-10^r10p8-10-------------------------------------|
G|--------------------------------------------------------------------------|
D|--------------------------------------------------------------------------|
A|--------------------------------------------------------------------------|
E|--------------------------------------------------------------------------|

e|-----------------------------------------------------10-------------------|
B|-10^r10--8-----8--10-10^r-10-----10r----10r10--8--------------------------|
G|-----------9--------------------------------------------------------------|
D|--------------------------------------------------------------------------|
A|--------------------------------------------------------------------------|
E|--------------------------------------------------------------------------|

e|---------0----------------------------------------------------------------|
B|--10-----0--5^------------------------------------------------------------|
G|------------5^--5^------------------------5h7-----------------------------|
D|-------------------------------7-7--7-------------------------------------|
A|--------------------------------------------------------------------------|
E|--------------------------------------------------------------------------|

e|--------------------------------------------------------------------------|
B|-7^---------8-8---8-8-----8-8----8----------------------------------------|
G|--------------7^----7^r7----7^r----7^r7---5^------------------------------|
D|--------------------------------------------------------------------------|
A|--------------------------------------------------------------------------|
E|--------------------------------------------------------------------------|
Comments