Silverchair - Tomorrow Chords & Tabs

 

Tomorrow Chords & Tabs

Silverchair Chords & Tabs

Version: 5 Type: Tab 0 ratings
1 star 2 stars 3 stars 4 stars 5 stars
comments

Tomorrow Tab

Tomorrow - Silverchair
Tabbed by: KoRny Freak 
Tuning = Standard

KEY
h-hammer on     /-slide         p-pull off
^-bend          ~~~-vibrato     r-release

intro (Clean)
E|-------0----------------0---------------3p2--------------------------|
B|---------2------2----------2-----------------3-----------------------|
G|-------------2--2--------------0----2------------2-----0-----0-------|
D|---2-------2----2---2--------2----0---0--------0-----2-----0---------|
A|-0---0----------0-----0----------------------------3-----2-------2---|
E|---------------------------------------------------------------3-----|

Verse                               *
E|-----------------------------3-0--------------
B|------------------2---0--3---3-3--3-0---------
G|-2---2-2----------2---0--0---0-0--2-0---------
D|-2---2-2----2---------0--0---0-0--0-0--2------
A|-0---0-0--0-0--0----0h2--2---2---------3p0-2--
E|-------------------------3---3-------------3--
*Right before the pre-chorus hit the distortion on on the D

Pre-Chorus
E|------------------------------------------------------|
B|------------------------------------------------------|
G|-2---2-------2-2--x-x-4---4--x-x-5--5-----------5p0---|
D|-2---2-------2-2--x-x-4---4--x-x-5--5-------5h7-------|
A|-0---0--0-0--0-0--x-x-2---2--x-x-3--3-3/5h7-----------|
E|----------------------2---2--x-x-3--3-----------------|
          P M

Interlude
E-5-5--x-x-10--10--12p10-----------------8--8--8--x-x-10--10-12p10------------
B-5-5--x-x-10--10--------10-12p10--------8-----8--x-x-10--10-------10-12p10---
G-6----x-x-11---------------------11\9---9--------x-x-11-------------------11\
D-7--------12---------------------12\10--10-----------12-------------------12\
A-----------------------------------------------------------------------------
E-----------------------------------------------------------------------------

Chorus w/distortion
E|--------------------------------------------------|
B|------------------------------------x--5-5--5-5-5-|
G|-2---2--x-x--7--7-7--7-7-7-7--5-5-x-x--7-7--7-7-7-|
D|-2---2--x-x--7--7-7--7-7-7-7--5-5-x-x--7-7--7-7-7-|
A|-0---0--x-x--5--5-5--5-5-5-5--3-3-x----5-5--5-5-5-|
E|-------------5--5-5--5-5-5-5--3-3------5-5--5-5-5-|

2nd Chorus                         *1rst ending
E||------------------------------||----------------------|
B||o----------------------------o||--------x--5-5--5-5-5-|
G||--2---2--x-x--7--7-7--7-7-7-7-||--5-5-x-x--7-7--7-7-7-|
D||--2---2--x-x--7--7-7--7-7-7-7-||--5-5-x-x--7-7--7-7-7-|
A||o-0---0--x-x--5--5-5--5-5-5-5o||--3-3-x----5-5--5-5-5-|
E||--------------5--5-5--5-5-5-5-||--3-3------5-5--5-5-5-|

  *2nd ending
E|----------------------------|
A|-3-3-3-3--5-5-5-5--5-5------|
D|-5-5-5-5--7-7-7-7--7-7------|
G|-5-5-5-5--7-7-7-7--7-7--x-x-|
B|-3-3-3-3--5-5-5-5--5-5--x-x-|
E|-3-3-3-3--5-5-5-5--5-5--x-x-|
[ Tab from: http://www.guitartabs.cc/tabs/s/silverchair/tomorrow_tab_ver_5.html ]
Solo w/dist
        PM  ~~~~~~~~~
---------------------------------------
--5^(1/4)----------------------------5-
--5^(1/2)----------------------5--7--5-
----------7--5--7-----------7----------
---------------------------------------
---------------------------------------

---------------------------------------------------------------------------
-----------8-7^(1/4)r-7----------------------------------------------------
--7^(full)---7^(1/2)r-7p5--7(full)-7(full)-7--7(full)-7(full)-7(full)7--5h7
---------------------------------------------------------------------------
---------------------------------------------------------------------------
---------------------------------------------------------------------------

          ~~~~                         ~~~
--------------------------------------------------
--------------------------------------------------
-7^(full)-7-----5h7--5^(1/2)-----5----------------
------------------------------7--5--7--7---5h7----
--------------------------------------------------
--------------------------------------------------

                     ~~~~~~~~
-------------------------------------------------
-------------------------------------------------
---------------5---------------------------------
---------------5--7--7---------------------------
--7\5--5--5/7------------------------------------
--------------------------------1/14\1-1-1--1-1--

-10^(full)--10^(full)10--10^(full)r10---------------------------
-------------------------10^(full)r10--8--10-10^(1/2)r10p8-10---
----------------------------------------------------------------
----------------------------------------------------------------
----------------------------------------------------------------
----------------------------------------------------------------

                                    ~~~~
-----------------------------------------------------10------------------
-10^(1/2)r10--8-----8--10-10^(full)r-10-----10(full)r----10(full)r10--8--
----------------9--------------------------------------------------------
-------------------------------------------------------------------------
-------------------------------------------------------------------------
-------------------------------------------------------------------------

  ~~~~~                             ~~~~
---------0--------------------------------------
--10-----0--5^(1/4)-----------------------------
------------5^(1/2)--5^(1/2)--------------5h7---
-------------------------------7-7--7-----------
------------------------------------------------
------------------------------------------------

---------------------------------------------------------------------------
-7^(full)---8-8---------8-8-----------8-8----------8-----------------------
--------------7^(full)----7^(full)r7----7^(full)r----7^(full)r7---5^(1/2)--
---------------------------------------------------------------------------
---------------------------------------------------------------------------
---------------------------------------------------------------------------

If you have any questions or comments, email me at
silverchair_surfing_bird@hotmail.com



Comments