Silverchair - Tomorrow Chords & Tabs

 

Tomorrow Chords & Tabs

Silverchair Chords & Tabs

Version: 2 Type: Tab 0 ratings
1 star 2 stars 3 stars 4 stars 5 stars
comments

Tomorrow Tab

 _____________________________________________
|Song by: Silverchair			      |
|Song:    Tomorrow 			      |
|Tabbed by: William Sykes (wsykes79@yahoo.com)|
|_____________________________________________|

There are plenty of tabs out there that show the beginning and chorus parts, I just tabbed the solo because I thought the 
existing ones out there were inaccurate.. This might not be 100% correct, but its pretty damn close.. 

[ Tab from: http://www.guitartabs.cc/tabs/s/silverchair/tomorrow_tab_ver_2.html ]
E----------------------------------------------------------------------------------------------------------------------
B----------------------------------------8s5---------------------------------------------------------------------------
G---------5---------------5--7--5--h7s9------5-7--8^-8^-8^-8^--7--5--7--9--7-5-7-5-------------------------------------
D------7-----7-5-7--------------------------------------------------------------------7--5--0--7------------5--5h7-7---
A---------------------------------------------------------------------------------------------------5--5h7-------------
E----------------------------------------------------------------------------------------------------------------------

E----12--10--------------------------------------------------10--------------------------------------------------------
B------------12----8--10--12--8h10-10--12r10---8h10--10---10-----12--10--8--10----------------------------9-----9-----9
G--------------------------------------------9------------------------------------9s7-5------------5--7h8---7h8---7h8--
D---------------------------------------------------------------------------------------7----5--7----------------------
A----------------------------------------------------------------------------------------------------------------------
E----------------------------------------------------------------------------------------------------------------------

E---------------------
B-----9---------------
G-7h8----7-5----------
D-------------5--7----
A---------------------
E---------------------





Comments