Silverchair - Tomorrow Chords & Tabs

 

Tomorrow Chords & Tabs

Silverchair Chords & Tabs

Version: 1 Type: Tab 0 ratings
1 star 2 stars 3 stars 4 stars 5 stars
comments

Tomorrow Tab

   
#----------------------------------PLEASE NOTE--------------------------------#
#This file is the author's own work and represents their interpretation of the#
#song. You may only use this file for private study, scholarship, or research.#
#-----------------------------------------------------------------------------#
#-- File created with Instab - http://www.pconline.com/~smcarey/instab.html --#
#-----------------------------------------------------------------------------#

Author/Artist: Silverchar
Title: Tomorrow
Album: Frogstomp
Transcribed by: Glenn Pfeiffer
Email: aspone_glenn@hotmail.com

this is one of the best songs ever

i play it in my band its pretty much perfict

i gave my teacher the tab from chairpage.com and he fixed it up

the solo is just a basic outline of what i muck around with.the solo on the cd
is loger then this so improvise

STANDARD TUNING:
E A D G B E

KEY:
p=pull off
x=muted string
h=hammer on
/=slide
B=bend
v=vibrato

-------0-------|-------0---------|-------3p2-------|-----------------|--------
---------2-----|-2---------2---0-|-----------3-----|-----------------|--------
-------------2-|-2-----------2---|---2-----------2-|-----0-----0-----|--------
---2-------2---|-2-2-------------|-0---0-------0---|---2-----0-----2-|--------
-0---0---------|-0---0-----------|-----------------|-3-----2-----3---|--------
---------------|-----------------|-----------------|-----------------|--------
 Intro:A                           D                 C     G     C            

-----0-0-0-0-0-0-|-----3---3--------|-----------------------------------------
-----2-2-2-2-2-2-|-----3---2--------|-----------------------------------------
-2---2-2-2-2-2-2-|-0---0---3--------|-----------------------------------------
-2---2-2-2-2-2-2-|-0---0---0--------|-----------------------------------------
-0---0-0-0-0-0-0-|-2---2------3p0---|-----------------------------------------
-0---0-0-0-0-0-0-|-3---3----------3-|-----------------------------------------
 verse:A           G       D on the last time hit distortion on D             

----------------------|------------------------|----------------------|-------
----------------------|------------------------|----------------------|-------
-2---2------2-2-----4-|-4-----5--5---------5p0-|-2---2------2-2-----4v|-------
-2---2------2-2-x-x-4-|-4-x-x-5--5-----5h7-----|-2---2------2-2-x-x-4v|-------
-0---0--0-0-0-0-x-x-2-|-2-x-x-3--3-5h7---------|-0---0--0-0-0-0-x-x-2v|-------
----------------x-x-2-|-2-x-x-3--3-------------|----------------x-x-2v|-------
 precor:PM_                               3x  last time __                    

---------------------------|---------------------------|----------------------
---------------------------|---------------------------|----------------------
-2--2------7--7-7--7-7-7-7-|-5--5------7--7-7--7-7-7-7-|----------------------
-2--2--x-x-7--7-7--7-7-7-7-|-5--5--x-x-7--7-7--7-7-7-7-|----------------------
-0--0--x-x-5--5-5--5-5-5-5-|-3--3--x-x-5--5-5--5-5-5-5-|----------------------
-------x-x-5--5-5--5-5-5-5-|-3--3--x-x-5--5-5--5-5-5-5-|----------------------
 chorus:on the last time hold^                                                
[ Tab from: http://www.guitartabs.cc/tabs/s/silverchair/tomorrow_tab.html ]
-5-5--10-10--12p10----------|-------8--8-10-10--12p10----------|--------------
-5-5--10-10--------12p10-10-|-------8--8-10-10--------12p10-10-|--------------
-6----11--------------------|-11/9--9----11--------------------|--------------
-7----12--------------------|-12/10-10---12--------------------|--------------
----------------------------|----------------------------------|--------------
----------------------------|----------------------------------|--------------
 interlude: 2x                                                                

---------------------------|---------------------------|----------------------
---------------------------|---------------------------|----------------------
-2--2------7--7-7--7-7-7-7-|-5--5------7--7-7--7-7-7-7-|----------------------
-2--2--x-x-7--7-7--7-7-7-7-|-5--5--x-x-7--7-7--7-7-7-7-|----------------------
-0--0--x-x-5--5-5--5-5-5-5-|-3--3--x-x-5--5-5--5-5-5-5-|----------------------
-------x-x-5--5-5--5-5-5-5-|-3--3--x-x-5--5-5--5-5-5-5-|----------------------
                                                                              

---------------------------|-----------------------|--------------------------
---------------------------|-----------------------|--------------------------
-2--2------7--7-7--7-7-7-7-|-5-5-5-5--7-7-7-7--7-7-|--------------------------
-2--2--x-x-7--7-7--7-7-7-7-|-5-5-5-5--7-7-7-7--7-7-|--------------------------
-0--0--x-x-5--5-5--5-5-5-5-|-3-3-3-3--5-5-5-5--5-5-|--------------------------
-------x-x-5--5-5--5-5-5-5-|-3-3-3-3--5-5-5-5--5-5-|--------------------------
 2nd chorus: 2x  last chorus: 4x                                              

------------------5----------------------------------------10b-10-10b---------
-5b-----------------5-8bp5-------------------------------------10-10b-8-10b---
-5b----------5-7b----------7b-5-------5---------------------------------------
-----7p5-5-5--------------------7-5h7---7-5-----------------------------------
--------------------------------------------7-5/5-3---------------------------
----------------------------------------------------5-3/10--------------------
 solo:                                                                        

-------------------------------------5-8bh5-----------------------------------
-10h8----10h8----10h8-----------5-8b--------8-5------------5-8b-5-------------
------10------10------10p8/5-7b-----------------7-5---5-7b--------7b-5-7b-5---
----------------------------------------------------7-------------------------
------------------------------------------------------------------------------
------------------------------------------------------------------------------
                                                                              

------------------------------------------------------------------------------
------------------------------------------------------------------------------
-7bp5-------------------------------------------------------------------------
------7v----------------------------------------------------------------------
------------------------------------------------------------------------------
------------------------------------------------------------------------------
 its an improvised solo..my teacher gave me this so just fuck aroud wif it    

------------------------------------------------------------------------------
------------------------------------------------------------------------------
-2v---------------------------------------------------------------------------
-2v---------------------------------------------------------------------------
-0v---------------------------------------------------------------------------
------------------------------------------------------------------------------
 end on A                                                                     

Comments