Silverchair - Tomorrow Chords & Tabs

 

Tomorrow Chords & Tabs

Silverchair Chords & Tabs

Version: 1 Type: Bass Tab 0 ratings
1 star 2 stars 3 stars 4 stars 5 stars
comments

Tomorrow Bass Tab

Song: Tomorrow
Artist: Silverchair
Tabbed by: John Mulligan (jmulligan@idmail.com)

		Bass enters
G-------------|--------------|
D---Guitar----|--------------|
A---Intro-----|-3--2--0---0--|
E-------------|---------3----|

  Riff 1 (Verse)
G-------------------------------------|
D------------------------------------*|
A-0--0--0-0-0--0----------5---3p0----*|
E-----------------3--3--3----------3--|


  Riff 2 (Chorus)
G------------------------------------|
D-----------------------------------*|
A-----------------------------5-7---*|
E-5--5--5-5--5--7--7--8---5-8-----3--|
[ Tab from: http://www.guitartabs.cc/tabs/s/silverchair/tomorrow_btab.html ]
		Lead-up		   (Play 0 16x)
G------------|----------------------------------|
D---Guitar---|----------------------------------|
A----Solo----|-0-0-0-0-0-0-0-0-0-0-0-0-0-0-0-0--|
E------------|----------------------------------|

  Riff 3
G-------------------------------|
D------------------------------*|
A-0---05----5-5--3---35---5-5--*|
E-------------------------------|

G------------|------------|
D---Riff 1---|---Riff 2---|
A------------|----(2x)----|
E------------|------------|

  Repeat this until the end 
G------------|------------------------------|
D*--Riff 3---|-----------------------------*|
A*---(1x)----|-0---05---3-3-3-3--5-5-5-5-5-*|
E------------|------------------------------|

Have fun!

Comments