Silverchair - The Greatest View Chords & Tabs

 

The Greatest View Chords & Tabs

Silverchair Chords & Tabs

Version: 9 Type: Tab 0 ratings
1 star 2 stars 3 stars 4 stars 5 stars
comments

The Greatest View Tab

   
I just got bored and wrote this out.
Chords
A - 002220
Bsus2 - 224422
C - 030210
E - 022100
Bb - 113331
F - 133211
G - 355433
Amaj7 - 002120
D - 000323
Bm - 224432

Intro

e|----------------------------|---------------------------|
B|----------------------------|---------------------------|
G|----------------------------|---------------------------|
D|-----7-6-5-----5-4-2--------|---------------3-2-02------|
A|----------------------------|-----3-------3-------------|
E|-00----------0--------3-2-1-|-0-1---1-0-1---------------|

Verse
A
You're the analyst
Bsus2
The fungus in my milk
A             C  
When you want no one
A            E  
And you got someone
A 
Through the wind
You crawl
Bsus2
And laugh at burning dunes
Bb         F     G
When no one else will
Ever see

A                          C       D
Now that you know why you feel like you do
A                           C      D
They're turning their head whilst they wait
For no one
A                           C       D             E
And finally I know why you feel like letting go

Chorus
A             Amaj7
I'm watching you watch
       Bm
Over me and I've got
 D             F           A
The greatest view from here
             Amaj7 
I'm watching you watch
       Bm   
Over me and I've got
    D          F           A
The greatest view from here

Funky 12 string fill i havent figured out.

Verse 
[ Tab from: http://www.guitartabs.cc/tabs/s/silverchair/the_greatest_view_tab_ver_9.html ]
Mistakes don't mean a thing
If you don't regret them
So pack your tactic toes for the winter
Chain a waterfall to burned and withered skin
No-one else will ever see

Fill
|C-D-| to chorus

Chorus

I'm watching you watch
Over me and I've got
The greatest view from here
I'm watching you watch
Over me and I've got
The greatest view from here

Intro with extras

e|----------------------------|---------------------------|
B|----------------------------|---------------------------|
G|----------------------------|---------------------------| 
D|-----7-6-5-----5-4-2--------|---------------3-2-02------|
A|----------------------------|-----3-------3-------------|
E|-00----------0--------3-2-1-|-0-1---1-0-1---------------|

e|---------------------------------|-----------------------|
B|---------------------------------|-----------------------|
G|---------------------------------|-----------------------|
D|---------------------------------|-----66-------9-11/12--|
A|----12-11-10---7-10-9-7--7-10-88-|-7-8----10h11----------|
E|-00------------------------------|-----------------------|


e|--------------------------------------------------------|
B|--------------------------------------------------------|
G|--------------------------------------------------------|
D|------------12-14/15------------------------------------|
A|-10--12h13------------13--------------------------------|
E|--------------------------------------------------------|



Verse

Now that you know why you feel like you do
They're turning their head whilst they wait
For no one
And finally I know why I feel like you're letting go

Chorus

I'm watching you watch
Over me and I've got
The greatest view from here
I'm watching you watch
Over me and I've got
The greatest view from here
The greatest view from here
The greatest view
Comments