Silverchair - The Greatest View Chords & Tabs

 

The Greatest View Chords & Tabs

Silverchair Chords & Tabs

Version: 7 Type: Tab 0 ratings
1 star 2 stars 3 stars 4 stars 5 stars
comments

The Greatest View Tab

   
Silverchair
The Greatest View
Tab by : Braden Manning
email : bmanning@gotafe.vic.edu.au
tabbed 2/2/02

The 2nd achord in the main verse.. i have no idea what that
is at the moment.
Any takers????
Also, i saw them play this live recently at the Big Day Out, and he's playing the first
Asus chord at the 5th fret.. 
And no, its not finished, I'm not happy with the picking bit after the first verse,
but i'll work on it when i can be bothered...
at least this should be better than anything thats already out there....

cya..
braden




  INTRO RIFF

E|------------------------------------------------------------------|
B|------------------------------------------------------------------|
G|------------------------------------------------------------------|
D|-------------------------------------------9--------9-------------|    X  2
A|--------12-11-10---7-10-9-7---7-10-8---7-8---8--7-8---8-7-5-7-----|
E|--0-0-------------------------------------------------------------|


  

  First Verse - Basic chords, listen to it and work out the pattern yourself

E|--0---0---0---5---0---0----------------------------------------------------|
B|--0---0---0---5---0---0----------------------------------------------------|
G|--6---0---6---5---6---1----------------------------------------------------| 
D|--7---7---7---7---7---2----------------------------------------------------|
A|--7---6---7---7---7---2----------------------------------------------------|
E|--5---7---5---5---5---0----------------------------------------------------|

E|--0--0-----1-3-----0-0----------------------------------------------|
B|--0--0--33-1-3--33-2-0----------------------------------------------|
G|--6--0--33-2-4--2222-2----------------------------------------------|
D|--7--7--33-3-5--2222-2----------------------------------------------|
A|--7--6--11-3-5-------0----------------------------------------------|
E|--5--7-----1-3------------------------------------------------------|

E|--00/00--0000-0--00/00---0000-0---00/00---------------------------|
B|--11/33--3302-0--11/33---3302-0---11/33---------------------------|
G|--00/00--2222-2--00/00---2222-2---00/00---------------------------|
D|--22/44--2222-2--22/44---2222-2---22/44---------------------------|  X  2
A|--33/55--0000-0--33/55---0000-0---33/55---------------------------|
E|------------------------------------------------------------------|
		 

    E chord over the top of...

E|------------------------------------------------------------------|
B|------------------------------------------------------------------|
G|--14-14-14-14----13-13-13-13----11-11-11-11---9999----------------|
D|------------------------------------------------------------------|
A|--12-12-12-12----11-11-11-11-----9--9--9--9---7777----------------|
E|------------------------------------------------------------------|
     


  CHORUS CHORDS....

     A sus   ???       Bm       D      D Minor

E|---0-----------------2---------------5------------------------------|
B|---0-------2---------3--------7------6------------------------------|
G|---6-------1---------4--------7------7------------------------------|   X  2
D|---7-------2---------4--------7------7------------------------------|
A|---7-----------------2--------5------5------------------------------|
E|---5----------------------------------------------------------------|



The acoustic picking part after the first chorus.
Very loosely worked out kinda... but you get the gist...


E|---------------------3--------0---|
B|----3-0-2--0h2p0------0-------5p3-|
G|----------------2--0---------0----|
D|--2----------------2--------4-----|
A|-0----------------3------3/5------|
E|----------------------------------|
       
E|---------------------9--7--5-----------------|
B|----3-0-2-----------------------3p1p0------0-|
G|----------slideupto-9--7--6----0----------0--|
D|--2---------------------------2----------4---|
A|-0---------------------------3--------3/5----|
E|---------------------------------------------|




  Back to first verse chords...

E|--0---0---0---5---0---0----------------------------------------------------|
B|--0---0---0---5---0---0----------------------------------------------------|
G|--6---0---6---5---6---1----------------------------------------------------| 
D|--7---7---7---7---7---2----------------------------------------------------|
A|--7---6---7---7---7---2----------------------------------------------------|
E|--5---7---5---5---5---0----------------------------------------------------|


E|--0---0--00/00-----------------------------------------------------------|
B|--0---0--11/33-----------------------------------------------------------|
G|--6---0--00/00-----------------------------------------------------------|
D|--7---7--22/44-----------------------------------------------------------|
A|--7---6--33/55-----------------------------------------------------------|
E|--5---7------------------------------------------------------------------|


[ Tab from: http://www.guitartabs.cc/tabs/s/silverchair/the_greatest_view_tab_ver_7.html ]
  CHORUS 

     A sus   ???       Bm       D      D Minor

E|---0-----------------2---------------5------------------------------|
B|---0-------2---------3--------7------6------------------------------|
G|---6-------1---------4--------7------7------------------------------|   X  2
D|---7-------2---------4--------7------7------------------------------|
A|---7-----------------2--------5------5------------------------------|
E|---5----------------------------------------------------------------|





Intro riff again....

E|------------------------------------------------------------------|
B|------------------------------------------------------------------|
G|------------------------------------------------------------------|
D|-------------------------------------------9--------9-------------|    X  2
A|--------12-11-10---7-10-9-7---7-10-8---7-8---8--7-8---8-7-5-7-----|
E|--0-0-------------------------------------------------------------|


E|--------------------------------------------------------------------------------------|
B|--------------------------------------------------------------------------------------|
G|--------------------------------------------------------------------------------------|
D|--------------------------------------------66--------9-11/12------------12-14/15-----|    X  2
A|--------12-11-10---7-10-9-7---7-10-88---7-8-----10h11---------10---12h13----=-----13--|
E|--0-0---------------------------------------------------------------------------------|




  I also think that the last part of the riff above is played down below on the
  frets closer to the neck.  Its upto you to decide.  I've tabbed it both
  ways though....

E|------------------------------------------------------------------|
B|------------------------------------------------------------------|
G|------------------------------------------------------------------|
D|---------------------0--2h3---------------------------------------|
A|------2--4h5-----0h1--------1-------------------------------------|
E|--3h4--------3----------------------------------------------------|



E|--0000-0--00/00---0000-0---00/00---------------------------|
B|--3302-0--11/33---3302-0---11/33---------------------------|
G|--2222-2--00/00---2222-2---00/00---------------------------|
D|--2222-2--22/44---2222-2---22/44---------------------------|  X  2
A|--0000-0--33/55---0000-0---33/55---------------------------|
E|-----------------------------------------------------------|



E|--0002-x0--00/00-----------------------------|
B|--3302-x0--11/33-----------------------------|
G|--2222-x1--00/00-----------------------------|
D|--2224-x2--22/44-----------------------------|  
A|--0004-x2--33/55-----------------------------|
E|-----2--0------------------------------------|


    E chord over the top of...  for 4 beats....

E|------------------------------------------------------------------|
B|------------------------------------------------------------------|
G|--14-14-14-14----13-13-13-13----11-11-11-11---9999----------------|
D|------------------------------------------------------------------|
A|--12-12-12-12----11-11-11-11-----9--9--9--9---7777----------------|
E|------------------------------------------------------------------|


  CHORUS 

     A sus   ???       Bm       D      D Minor

E|---0-----------------2---------------5------------------------------|
B|---0-------2---------3--------7------6------------------------------|
G|---6-------1---------4--------7------7------------------------------|   X  4
D|---7-------2---------4--------7------7------------------------------|
A|---7-----------------2--------5------5------------------------------|
E|---5----------------------------------------------------------------|


Thats it.. enjoy this freaking awesome song..   :-)


THE LYRICS

You're the analyst
The fungus in my milk
When you want no one
And you got someone
Through the wind
You crawl
And laugh at burning dunes
When no one else will
Ever see

Now that you know why you feel like you do
They're turning their head whilst they wait
For no one
And finally I know why you feel like letting go

I'm watching you watch
Over me and I've got
The greatest view from here
I'm watching you watch
Over me and I've got
The greatest view from here

Mistakes don't mean a thing
If you don't regret them
So pack your tactic toes for the winter
Chain a waterfall to burned and withered skin
No-one else will ever see

I'm watching you watch
Over me and I've got
The greatest view from here
I'm watching you watch
Over me and I've got
The greatest view from here

Now that you know why you feel like you do
They're turning their head whilst they wait
For no one
And finally I know why I feel like you're letting go

I'm watching you watch
Over me and I've got
The greatest view from here
I'm watching you watch
Over me and I've got
The greatest view from here
The greatest view from here
The greatest view


Comments