Silverchair - The Greatest View Chords & Tabs

 

The Greatest View Chords & Tabs

Silverchair Chords & Tabs

Version: 2 Type: Tab 0 ratings
1 star 2 stars 3 stars 4 stars 5 stars
comments

The Greatest View Tab

   
#----------------------------------PLEASE NOTE---------------------------------#
#This file is the author's own work and represents their interpretation of the #
#song. You may only use this file for private study, scholarship, or research. #
#------------------------------------------------------------------------------#

The Greastest View
Silverchair
Tabbed by: Nuno Moreira, 02/02/01
Album: Diorama 

[0:00]Intro

Guitar 1
e||---------------------------------------|| x2
B||---------------------------------------||
G||---------------------------------------||
D||-2-2---7-5-5--5-4-2--3--3-3-3--3--3-3-3-||
A||-2-2---7-5-5--5-4-2--3--3-3-3--3--3-3-3-||
E||-0-0---5-4-3--3-2-0--1--1-1-1--1--1-1-1-||

Guitar 2
e||---------------------------------------------------|| x2
B||---------------------------------------------------||
G||-----2-1-0----------------------5--------5---------||
D||------------0-5-4-2--0-2-3--0-3---3--0-3---3-2-0-2-||
A||---------------------------------------------------||
E||-0-0-----------------------------------------------||


A B7
You're the analyst, the fungus in my milk ...

[0:52] Pre-chorus
e||--------------------------||
B||--------------------------||
G||--14-13-13-11-11-9-9----------------||
D||--XX-XX-XX-XX-XX-X-X-----------------||
A||--12-11-11-9--9--7-7--------------||
E||--------------------------||

(I'm watching you watch over me)

Guitar1
e||------------------------------3-0--------------5-0------------------9--7--5---------0---------------0--------|| x1
B||-----3-0-2---2-0----------1---------------3----------------3-0-2----------------------1---1-----3------3---3-||
G||------------------2---------0-----5----------0----------------------9--7--6------0------0---------0------0---||
D||---2----------------2---2----------------4---------------2---------------------2---2----------4--------------||
A||-0--------------------3----------------5---------------0--------------------3--------------5----------------||
E||------------------------------------------------------------------------------------------------------------||
Guitar2
e||------------------------------3-0---------------5-0-----------------9--7--5---------0----------------0-------||X1
B||---------------------------------------------------------------------------------------1---1-----3------3---3-||
G||--7-7--6--4--2-5-----------------5-----7------------7-7---6---------9\-7\-6------0-------0----------0-----0---||
D||-----9--------------------------------------------------9----------------------2---2----------4---------------||
A||----------------------------------------------------------------------------3---------------5----------------||
E||--------------------------------------------------------------------------------------------------------||

[ Tab from: http://www.guitartabs.cc/tabs/s/silverchair/the_greatest_view_tab_ver_2.html ]
(Mistakes don't mean a thing if you don't regret them)
 
Guitar 1
e||---------------------------------------|| x2
B||---------------------------------------||
G||---------------------------------------||
D||-2-2---7-5-5--5-4-2--3--3-3-3--3--3-3-3-||
A||-2-2---7-5-5--5-4-2--3--3-3-3--3--3-3-3-||
E||-0-0---5-4-3--3-2-0--1--1-1-1--1--1-1-1-||

 
Guitar 2
e||---------------------------------------------------|| x2
B||---------------------------------------------------||
G||-----2-1-0----------------------5--------5---------||
D||------------0-5-4-2--0-2-3--0-3---3--0-3---3-2-0-2-||
A||---------------------------------------------------||
E||-0-0-----------------------------------------------||


e||----------------------------------------------------------------------------|| x1 
B||----------------------------------------------------------------------------||
G||----------------------------------------------------7-8--------------9-10---||
D||-2-2---7-5-5--5-4-2--2-2-3-3-3--3-3--6-6-6--6-6--9-9-x-x-5--5-5-12-12-x-x--8-||
A||-2-2---7-5-5--5-4-2--2-2-3-3-3--3-3--6-6-6--6-6--x-x-5-6-x--x-x-xx-xx-7-8--x-||
E||-0-0---5-4-3--3-2-0--0-0-1-1-1--1-1--4-4-4--4-4--7-7-----3--3-3-10-10------6-||

[2:18]
e||------------------------------------------------------------------------------|| x1
B||------------------------------------------------------------------------------||
G||-----2-1-0-------------------------------------------7-8---------------9-10---||
D||------------0-5-4-2--0-2--3-3-3--3-3--6-6-6--6-6-9-9-----5--5-5--12-12------8-||
A||------------------------------------------------------------------------------||
E||-0-0--------------------------------------------------------------------------||


(Now that you know why you feel like you do)


A Amaj Bm
I'm watching you watch over me
d F
And I've got the greatest view from here 
Chord list:
   A    Amaj    Am    Asus     d      F     B7     Bm     E     F5     G5     C
e|-0-| e|-0-| e|-0-| e|-0-| e|-5-| e|-X-| e|-0-| e|-2-| e|-0-| e|---| e|---| e|-0-|
B|-2-| B|-5-| B|-1-| B|-3-| B|-7-| B|-1-| B|-0-| B|-3-| B|-0-| B|---| B|---| B|-1-|
G|-2-| G|-6-| G|-2-| G|-2-| G|-7-| G|-2-| G|-2-| G|-4-| G|-1-| G|---| G|---| G|-0-|
d|-2-| d|-6-| d|-2-| d|-2-| d|-7-| d|-3-| d|-1-| d|-4-| d|-2-| d|-3-| d|-5-| d|-2-|
A|-0-| A|-0-| A|-0-| A|-0-| A|-5-| A|-X-| A|-2-| A|-2-| A|-2-| A|-3-| A|-5-| A|-3-|
E|---| E|---| E|---| E|---| E|---| E|---| E|---| E|---| E|-0-| E|-1-| E|-3-| E|---|
  A       d     F#
E|-0-| E|-2-| E|-2-|
B|-5-| B|-3-| B|-2-|
G|-6-| G|-2-| G|-3-|
d|-7-| d|-0-| d|-4-|
A|-0-| A|---| A|-4-|
E|---| E|---| E|-2-|
xinininho@iol.pt
Comments