Silverchair - The Greatest View Chords & Tabs

 

The Greatest View Chords & Tabs

Silverchair Chords & Tabs

Version: 2 Type: Bass Tab 0 ratings
1 star 2 stars 3 stars 4 stars 5 stars
comments

The Greatest View Bass Tab

   
Band  : Silverchair
Song  : The Greatest View (Bass Tablature)
Album : Diorama
Tabbed by: TroaLance17

Intro:
g>-------------------------------|
d>--------------------------3202-|
a>--------------------2----2-----|
e>-00-543-0320-0h31-01-1-01------|

Verse:
g>-------------------------------------|
d>-------------------------------------|
a>-0-0-0-0-2-2-2-2-0-0-0-0-0-0---------|
e>-----------------------------0-0-0-0-|

g>-------------------------|
d>-------------------------|
a>-0-0-0-0-2-2-2-2-1-1-----|
e>---------------------1-3-|

Pre (and Post) chorus:
g>-------------------|
d>:------------------|
a>:-0-0-0-0-3-3-5-5--|(x3)
e>-------------------|
[ Tab from: http://www.guitartabs.cc/tabs/s/silverchair/the_greatest_view_btab_ver_2.html ]
g>---------|
d>---------|
a>---------|
e>-0-0-0-0-|

Chorus:
g>-----------------------------------|
d>:----------------------------------|
a>:-0-0-0-0-0-0-0-0-2-2-2-2-5-5------|(However many times)
e>------------------------------1-1--|

Bridge:
g>---------------------------------|
d>:--------------------------3202--|
a>:--------------------2----2------|(x2)
e>--00-543-0320-0h31-01-1-01-------|

g>----------------------------------------|
d>----------------------------------0-23--|
a>--------------------------2-45--01----1-|
e>-00-543-0320-0h311-0144-34----3---------|


Chorus Variant - End song with the F note on the A string, rather than the E String:
g>--
d>--
a>-8
e>--


Silverchair ROCKS!!! (electrogenesisband)
Comments