Silverchair - The Greatest View Chords & Tabs

 

The Greatest View Chords & Tabs

Silverchair Chords & Tabs

Version: 1 Type: Bass Tab 0 ratings
1 star 2 stars 3 stars 4 stars 5 stars
comments

The Greatest View Bass Tab

#----------------------------------PLEASE NOTE---------------------------------#
#This file is the author's own work and represents their interpretation of the-#
#song. You may only use this file for private study, scholarship, or research.-#
#------------------------------------------------------------------------------#

Song: The Greatest View
Band: Silverchair
Tabbed by: Matt

Tuning:
Standard (EADG)

Legend
/-slide up
\-slide down
h-hammer on
p-pull off

I have been playing this on bass and guitar for ages. This sounds the
closest to on the CD from my ear. There are a few different types out
there, but there needs to be more bass notes. Enjoy!

Intro (0.00)
g------------------------------------------------------
d--------------------------------------------3-2-0-2---
a-----12-11-10--7-10-9-7------------3------3-----------
e-0-0---------------------0-3-1--0-1-1-0-1-------------
On the single, the intro is played twice, and on the album, played 3
times. Follow the Guitar the whole way from the start.

Verse (...You're the Analyst...)
g---------------------
d---------------------
a-0-0-0-0-2-22-2------
e---------------------
(...When You want no one...)
g--6-6-6-5-5-5-6-6-6---------
d----------------------------
a----------------------------
e--------------------0-0-0-0-
(... Through the wind you crawl..)
g--------------------------
d--------------------------
a-0-0-0-2-2-2--------------
e-------------6-6--1-1-3-3-
[ Tab from: http://www.guitartabs.cc/tabs/s/silverchair/the_greatest_view_btab.html ]
Chorus Lead-in
(...Now that you now...)                    Then that last bit
g-----------------------------------------  ------------------
d-----------------------------------------  ------------------
a-------3--5-------3-5-------3---55-------  --12-11-11-99-77--
e-55-5--------55-5------55-5--------------  ------------------ 

Chorus
g--------------------------------
d--------------------------------
a-0-0-00-0-0-2-22-2-5-55-5-5-----  2x
e--------------------------------

Interlude
(Bass comes in second time through)
g--------------------------
d--------------------------
a-0-0-33-3333-55-5555-0----
e--------------------------

Verse (repeat as verse one)
Then as he sings....chain a waterfall..to burned and withered skin...
g-----------------
d-----------------
a--0-00-0-2-22-2--
e----------------- 
...Cos no one else will ever see....
g---------------
d---------------
a--3-33-5-5555--
e---------------
Then straight into chorus

Chorus
g-------------------------
d-------------------------
a--0-0-0-2-2-2-5-5-5------
e-------------------------

Solo
g------------------------------------------------
d---------------------------------------3-2-0-2--
a----12-11-10--7-10-9-7----------3-----3--------- 2x
e-00--------------------0-3-1-0-1-1-0-1----------

g--------------------------------------------------------------
d--------------------------------------------------------------
a----12-11-10-7-10-9-7--------------3-5-6-------5-7-8--8-7-5---
g-00-------------------0-3-11-0-1-44------4-6-7--------------6-

Repeat Chorus Lead-in                           The last bit again
g-------------------------------------------   --------------------
d-------------------------------------------   --------------------
a-------3--5-------3--5-------------33-55---   ---12-11-11-9-9-7-7-
e--55-5-------55-5--------55-2-2-0----------   --------------------

Chorus
g--------------------
d--------------------
a-0-0-0-2-2-2-5-5-5-- 4x
e--------------------

Good luck!

================================================================================
Comments