Silverchair - The Greatest Veiw Chords & Tabs

 

The Greatest Veiw Chords & Tabs

Silverchair Chords & Tabs

Version: 1 Type: Tab 0 ratings
1 star 2 stars 3 stars 4 stars 5 stars
comments

The Greatest Veiw Tab

Intro
---------------------------------------------------------
---------------------------------------------------------
---------------------------------------5-------5---------
----------------------------0-2-3--0-3---3--0-3--3-2-0-2- X2
------12-11-10----7-10-9-7-------------------------------
-0-0-----------------------------------------------------


Verse
---------------------------------------------------------
--------------------5------------------------------------
-6-----------6------5------6------1----------------------
-7-----7-----7------7------7------2----------------------
-7-----6-----7------7------7------2----------------------
-5-----7-----5------5------5------0----------------------



---------------------------------------------------------
----------------3----------------------------------------
-6--------------3------2-----4---------------------------
-7------7-------3------3-----5---------------------------
-7------6-------1------3-----5---------------------------
-5------7--------------1-----3---------------------------

interlude
---------------------------------------------------------
-3-3-0-2-2-2-2--1--3-------------------------------------
-2-2-0-2-2-2-2--0--0------X3-----------------------------
-2-2-0-2-2-2-2--2--4-------------------------------------
-0-0-0-0-0-0-0--3--5-------------------------------------
---------------------------------------------------------

---------------------------------------------------------
---------------------------------------------------------
-14-14-14----13-13-13----11-11-11---9-9-9---------------
--------------------------------------------------------
-12-12-12----11-11-11----9--9--9----7-7-7-----------------
---------------------------------------------------------

[ Tab from: http://www.guitartabs.cc/tabs/s/silverchair/the_greatest_veiw_tab.html ]
Chorus
----------------------------------------------------------
-------2------3------7------6-----------------------------
-6-----1------4------7------7---X2------------------------
-7-----2------4------7------7-----------------------------
-7------------2------5------5-----------------------------
-5--------------------------------------------------------



-------------------------------3--------------------------
-----3-0-2----2p0h2h0---------0--0-----------5-3----------
----------------------2------0-------------0--------------
--2-------------------------3-------------4---------------
-0-------------------------4----------3/5-----------------
----------------------------------------------------------


------------------9---7---5-------------------------------
------3-0-2-------------------------0--3/1-0--------0-----
--------------------9---7---6------0---------------0------
---2------------------------------2---------------4-------
-0-------------------------------3------------3/5---------
----------------------------------------------------------



Repeat verse 


Repeat Chorus



----------------------------------------------------------
----------------------------------------------------------
-------------------------------------5--------5-----------X2
--------------------------0-2-3--0-3--3----0-3--3-2-0-2---
-----12-11-10---7-10-9-7----------------------------------
-0-0------------------------------------------------------



----------------------------------------------------------
----------------------------------------------------------
----------------------------------------------------------
---------------------------------6---------9-11-12--------
-----12-11-10--7-10-9-7----8-7-8----10-11---------10-12-13
-0-0------------------------------------------------------

----------------------------------------------------------
----------------------------------------------------------
----------------------------------------------------------
-12---14-15-----------------------------------------------
-------------13-------------------------------------------
----------------------------------------------------------



Repeat interlude


Repeat Chorus


By Carly Ford
Comments