Silverchair - The Door Chords & Tabs

 

The Door Chords & Tabs

Silverchair Chords & Tabs

Version: 1 Type: Bass Tab 0 ratings
1 star 2 stars 3 stars 4 stars 5 stars
comments

The Door Bass Tab

The Door - Silverchair
Tabed by: Goose	(gowse@bigfoot.com)

"Dropped - D Tuning"
Tune "E" String down 1 step to "D"

   |----------|-----------------------------------------------------------------------------|
   |Gtr/Sitar-|-----------------------------------------------------------------------------|
   |-4--Bars--|----5-5-5---5-5-3-------5-5-5---5-5-3------5-5-5---5-5-3-------5-5-5---5-5-3-|
   |----------|-0------------------0-------------------0------------------0-----------------|

   |----------------------------------------------------------------------------------------|
   |----------------------------------------------------------------------------------------|
   |----5-5-5----5-5-5---------5-5-5----5-5-3--------5-5-5-----5-5-5--------5-5-5-----5-5-3-|
   |0---------------------0----------------------0----------------------0-------------------|

   |----------------------------------------------------------------------------------------|
   |----------------------------------------------------------------------------------------|
   |----5-5-5----5-5-5---------5-5-5----5-5-3--------5-5-5-----5-5-5--------5-5-5-----5-5-3-|
   |0---------------------0----------------------0----------------------0-------------------|

   |---------------------------------------------------------------------------------H------|
   |---------------------------------------------------------------------7--5-4--4--4-5--4--|
   |-H---------------------H--------------------H------------------------------------------5|
   |3-5--5-5---5-5-5-5----3-5--5-5---5-5-5-5---3-5--5-5---5-5-5-5--5--0---------------------|

   |--------------H-------------------------------------------------------------------------|
   |---7-5-4--4--4-5--4---------------------------------------------------------------------|
   |--------------------5-------------------------------------------------------------------|
   |0-----------------------3-5--5-5---5-5-5-5----3-5--5-5---5-5-5-5---3-5--5-5---5-5-5-5--5|

   |----------------------------------------------------------------------------------------|
   |----------------------------------------------------------------------------------------|
   |----5-5-5----5-5-3---------5-5-5----5-5-3--------5-5-5-----5-5-5--------5-5-5-----5-5-3-|
   |0---------------------0----------------------0----------------------0-------------------|

   |----------------------------------------------------------------------------------------|
   |----------------------------------------------------------------------------------------|
   |----5-5-5----5-5-5---------5-5-5----5-5-3--------5-5-5-----5-5-5--------5-5-5-----5-5-3-|
   |0---------------------0----------------------0----------------------0-------------------|

   |----------------------------------------------------------------------------------------|
   |----------------------------------------------------------------------------------------|
   |----5-5-5----5-5-5---------5-5-5----5-5-3-----------------------------------------------|
   |0---------------------0----------------------3-5--5-5---5-5-5-5-----3-5--5-5---5-5-5-5--|

   |---------------------------------------------H-------------------------------H----------|
   |------------------------------7---5--4---4--4-5--4---------7---5---4----4---4-5---4-----|
   |---------------------------------------------------5---------------------------------5--|
   |3-5--5-5---5-5-5-5---5----0-----------------------------0-------------------------------|
[ Tab from: http://www.guitartabs.cc/tabs/s/silverchair/the_door_btab.html ]
   |----------------------------------------------------------------------------------------|
   |----------------------------------------------------------------------------------------|
   |-H---------------------H--------------------H------------------------------5------5-----|
   |3-5--5-5---5-5-5-5----3-5--5-5---5-5-5-5---3-5--5-5---5-5-5-5--5-----0-0-0----0-0----0-0|

   |----------------------------------------------------------------------------------------|
   |----------------------------------------------------------------------------------------|
   |----------------------------------------------------------------------------------------|
   |5-5-5---3-3-3-3-----0-0-0---0-0-0--0--5-5-5---3-3-3----0--0-0---0-0-0--0--5-5-5--3-3-3-3|

   |----------------------------------------------------------------------------------------|
   |----------------------------------------------------------------------------------------|
   |----------------------------------5-5-5----5-5-3----5-5-5----5-5-3-------5-5-5----5-5-3-|
   |0-0-0---0-0-0----5-5-5---3-----0------------------0-----------------0-------------------|

   |----------------------------------------------------------------------------------------|
   |----------------------------------------------------------------------------------------|
   |----5-5-5----5-5-3---------5-5-5----5-5-3--------5-5-5-----5-5-3--------5-5-5-----5-5-5-|
   |0---------------------0----------------------0----------------------0-------------------|

   |----------------------------------------------------------------------------------------|
   |----------------------------------------------------------------------------------------|
   |------5-5-5-------5-5-3-------------5-5-5-------5-5-5-------------5-5-5-------5-5-3-----|
   |0----------------------------0-----------------------------0----------------------------|

   |---------------------------------------------------------------------------------H------|
   |---------------------------------------------------------------------7--5-4--4--4-5--4--|
   |-H---------------------H--------------------H------------------------------------------5|
   |3-5--5-5---5-5-5-5----3-5--5-5---5-5-5-5---3-5--5-5---5-5-5-5--5--0---------------------|

   |--------------H-------------------------------------------------------------------------|
   |---7-5-4--4--4-5--4---------------------------------------------------------------------|
   |--------------------5-------------------------------------------------------------------|
   |0-----------------------3-5--5-5---5-5-5-5----3-5--5-5---5-5-5-5---3-5--5-5---5-5-5-5--5|

   |----------------------------------------------------------------------------------------|
   |----------------------------------------------------------------------------------------|
   |-------5-------5------------------------------------------------------------------------|
   |0-0-0-----0-0----0-0----5-5-5---3-3-3-3---------0-0-0----0-0-0---0------5-5-5---3-3-3-3-|

   |----------------------------------------------------------------------------------------|
   |----------------------------------------------------------------------------------------|
   |----------------------------------------------------------------------------------------|
   |0--0-0----0-0-0-----0---5-5-5----3-3-3-3-------0--0-0----0-0-0-----0---5-5-5----3-3-3-3-|

   |----------------------------------------------------------------------------------------|
   |----------------------------------------------------------------------------------------|
   |----------------------------------------------------------------------------------------|
   |0--0-0----0-0-0-----0---5-5-5----3-3-3-3-------0--0-0----0-0-0-----0---5-5-5----3-3-3-3-|

   |----------------------------------------------------------------------------------------|
   |----------------------------------------------------------------------------------------|
   |----------------------------------------------------------------------------------(hold)|
   |0--0-0----0-0-0-----0---5-5-5----3-3-3-3-------0--0-0----0-0-0-----0------5-5-5---3----3|



Comments