Silverchair - Suicidal Dreams Chords & Tabs

 

Suicidal Dreams Chords & Tabs

Silverchair Chords & Tabs

Version: 1 Type: Tab 0 ratings
1 star 2 stars 3 stars 4 stars 5 stars
comments

Suicidal Dreams Tab

This tab has 2 intros cus 1s really hard 2 play but they both sound accurate.
the whole song sound gud on electric n its ok on acoustic its fairly accurate
but iv never seen them play so i dont no how accurate. enjoy:)
Silverchair-suicidal dreams
Intro and Verse
e|-----------------------------------|-0---|
B|-----------------------------------|---0-|
G|-------4-----4---------4-----4---4-|-----|
D|-----4-----4---4-----4-----4-------|-----|
A|-0-2---------------------------0---|-----|
E|---------3-------3-0-----2---------|-----|or..

Intro/Verse
E|-----------------------------|
B|-----------------------------|
G|*-----4-----4-----4-----4----|
D|*---4-----4-----4-----4------|
A|--2-----------------------0--|
E|--------3-----0-----2--------|

Chorus
(distortion)
E|--2-x---2--2-2-x\---0-0-0-3-|
B|--3-x---2--2-2-x\---0-0-0-3-|
G|--4-x---3--3-3-x\---0-0-0-4-|
D|--4-x---4--4-4-x\---2-2-2-5-|
A|--2-----4--4-4-x\---2-2-2-5-|
E|--------2--2-2-x\---0-0-0-3-|
[ Tab from: http://www.guitartabs.cc/tabs/s/silverchair/suicidal_dreams_tab.html ]
Play this when he goes suicidal! suicidal! suicidal dreams...
E|----------------------------------------------------------------|
B|----3------------------3-2-----------------0--------------------|
G|--4-2---4-3-0--------------0-----4--------------------------4---|
D|--4-0-----------5--4-------------4-4-----------5-4----5-4-0-4-5-|
A|--2------------------------------2-4-----------5-4----------2-5-|
E|------------------0--------------- 2-----------3-2------------3-|

E|-----------------------|
B|-----------------------|
G|-----------------------|
D|---5x--5-5-5x-4--4-4-2-|
A|---5x--5-5-5x-4--4-4-2-|
E|---3x--3-3-3x-2--2-2-0-|
After that bit play outro
E|--------------------------------------|
B|--------------------------------------|
G|--4-4-4-------------------------------|
D|--4-4-4-4-4-4-4-4-4-2-2-2-5-5-5-5-5-5-|
A|--2-2-2-4-4-4-4-4-4-2-2-2-5-5-5-5-5-5-|
E|--------2-2-2-2-2-2-0-0-0-3-3-3-3-3-3-|

E|-------------------------------------2-------|
B|-------------------------------------3-------|
G|--4-4-4------------------------------4-------|
D|--4-4-4-4-4-4-4-4-4-2-2-2-5----------4-------|
A|--2-2-2-4-4-4-4-4-4-2-2-2-5----------2-------|
E|--------2-2-2-2-2-2-0-0-0-3----3-2-0-2-------|
Comments