Silverchair - Suicidal Dream Chords & Tabs

 

Suicidal Dream Chords & Tabs

Silverchair Chords & Tabs

Version: 1 Type: Tab 0 ratings
1 star 2 stars 3 stars 4 stars 5 stars
comments

Suicidal Dream Tab

   
----------------------------------PLEASE NOTE---------------------------------#
#This file is the author's own work and represents their interpretation of the #
#song. You may only use this file for private study, scholarship, or research. #
#------------------------------------------------------------------------------#

Suicidal Dream by Silverchair

        Alright heres the main riffs from Suicial Dream off of the Frogstomp
  cd. I didn't include any timing or anything so you'll have to listen to the
  song to get that.

  Intro/Verse
E|-----------------------------|
B|-----------------------------|
G|*-----4-----4-----4-----4---*|
D|*---4-----4-----4-----4-----*|
A|--2-----------------------0--|
E|--------3-----0-----2--------|
   
  Chorus 
E|--2--2--0--3--|
B|--3--2--0--3--|
G|*-4--3--0--4-*|
D|*-4--4--2--5-*|
A|--2--4--2--5--|
E|-----2--0--3--|


  This riff is played once after the second chorus 
E|-----------------------------|
B|----3--------3--------3------|
G|--4-2------4-2------4-2------|
D|--4-0-5-4--4-0-2-4--4-0-5-4--|
A|--2---5-4--2---2-4--2---5-4--|
E|------3-2------0-2------3-2--|


Email comments, corrections, and complaints to
Voltage@vrb.com
Voltage@ahbqs.com
      or
Brian@idibbs.com
Suicidal Dream by Silverchair
tabbed by Alfredo Perez

     Here you go,
There's no timing so listen to the song.

  Intro/Verse
                                       A
E|------|---------------------------------------| You play this part 4 times but
B|------|---------------------------------------| the 3rd time another guitar
G|------|*-----4-------4----------4-----4--4--*| plays the D and G strings and
D|------|*---4-----------4------4-----4--4----*| then you play this...
A|----0-|--2---------------0-------------0-----|  ( he starts to sing)
E|------|---------3----------0------2-----------|
[ Tab from: http://www.guitartabs.cc/tabs/s/silverchair/suicidal_dream_tab.html ]
  B
E|---------------------------------------------------| Then you play the above 4
B|---------------------------------------------------| times, this once,
and the
G|-------------4-------4---------------------4------|  above 4 times again. Then
D|-----------4-----------4-----------4---------5----|  there's this...
A|---------2-----------------0----0------------------|
E|----------------3-------------2--------------------|


  Chorus
(distortion)
E|--2-x---2--2-2-x\---0-0-0-3----------------|
B|--3-x---2--2-2-x\---0-0-0-3----------------|
G|*-4-x---3--3-3-x\---0-0-0-4-------4---4--*|
D|*-4-x---4--4-4-x\---2-2-2-5-----5---5----*|
A|--2-----4--4-4-x\---2-2-2-5---5-----------|
E|--------2--2-2-x\----0-0-0-3-3------------|

Then you play the verse A 4 times (the guitar with distortion plays some
notes on
the D and G strings) and  then the chorus 4 times, then this...


  C
E|------------------------------------------------------------------
B|----3------------------3-2-----------------0---------------------
G|--4-2---4-3-0--------------0-----4---------------------------4---
D|--4-0-----------5--4-------------4-4-----------5-4----5-4-0--4-5
A|--2------------------------------2-4-----------5-4------------2-5
E|------------------0---------------- 2-----------3-2--------------3

E|------------------------|
B|------------------------|
G|------------------------|
D|---5x--5-5-5x-4--4-4-2-|
A|---5x--5-5-5x-4--4-4-2-|
E|---3x--3-3-3x-2--2-2-0-|

Then you play the chorus 3 times.
then then this 4 times.
D
E|----------------------------------------|
B|----------------------------------------|
G|--4-4-4---------------------------------|
D|--4-4-4-4-4-4-4-4-4-2-2-2-5-5-5-5-5-5-|
A|--2-2-2-4-4-4-4-4-4-2-2-2-5-5-5-5-5-5-|
E|---------2-2-2-2-2-2-0-0-0-3-3-3-3-3-3-|

then this
E
E|---------------------------------------2-------|
B|---------------------------------------3-------|
G|--4-4-4-------------------------------4--------|
D|--4-4-4-4-4-4-4-4-4-2-2-2-5----------4-------|
A|--2-2-2-4-4-4-4-4-4-2-2-2-5----------2-------|
E|---------2-2-2-2-2-2-0-0-0-3---3-2-0-2-------|


     If you didn't undrestand how it goes then:
Ax4,  BX1,  AX4,  BX1,  AX4,  CHORUSX4,  AX4,  CHORUSX4,  CX1,  DX3,  EX1


ny questions, comments, donations, and requests: us012845@mindspring.com
"We are the music makers and we are the dreamers of the dream"- Willie Wonka
Comments